>
 >
Anywhere But Here

Anywhere But Here Bass Tabs

Rise Against - Anywhere But Here chords, tabs, tablatures, lyrics

Guitar lessons | Add/correct | Request | Top 50 tabs Artists:  A B C D E F G H I J K L M N O P Q R S T U V W X Y Z 0-9

Anywhere But Here Bass Tabs – Rise Against

CD, Sheet music, Poster

Do you like Anywhere But Here? Share with your friends now
Bass TabsChordsChords v2Chords v3TabsTabs v2Tabs v3Tabs v4Tabs v5Tabs v6Ukulele
Band- Rise Against
Song- Anywhere But Here

Drop D Version (GDAD)
-------------------------------------------------------------

Intro
G|----------------------------------------------------------|
D|----------------------------------------------------------|
A|-----------------------------6666-6-8-6-5-6---------------|
D|-1111-1-1111-1-6666-6-6666-6----------------6666-6-6666-6-|

G|-------------------------------------------------------------|
D|-------------------------------------------------------------|
A|-----------------------------1-1-1-1-1-1-1-1-1-1-1-1-1-1-1-1-|
D|-1111-1-1111-1-6666-6-6666-6---------------------------------|

Verse
G|-----------------------------------------------------------------|
D|-----------------------------------------------------------------|
A|-333-333-333-333---------------------------------111-111-111-111-|
D|-----------------666-666-666-666-111-111-111-111-----------------|

G|-----------------------------------------------------------------|
D|-----------------------------------------------------------------|
A|-333-333-333-333---------------------------------111-111-111-111-|
D|-----------------666-666-666-666-111-111-111-111-----------------|

G|-----------------------------------------------------------------|
D|-------------3u5h666-666-666-8d6p555-555-555-6p5-----------------|
A|-333-333-333-------------------------------------888-888-888d6p5-|
D|-----------------------------------------------------------------|

G|-----------------------------------------------------------------|
D|-----------------------------------------------------------------|
A|-333-333-333-333-----------------666-666-666-666-111-111-111-111-|
D|-----------------666-666-666-666---------------------------------|

Pre-Chorus
G|---------------------------------|
D|---------------------------------|
A|-3m------------------------------|
D|---------8~------6m------8~------|

Chorus
G|----------------------------------------------------------|
D|----------------------------------------------------------|
A|-----------------------------66-666-8-6-5-6---------------|
D|-11-111-11-111-66-666-66-666----------------66-666-66-666-|

G|-------------------------------------------------------------|
D|-------------------------------------------------------------|
A|-----------------------------1-1-1-1-1-1-1-1-1-1-1-1-1-1-1-1-|
D|-11-111-11-111-66-666-66-666---------------------------------|

Verse
G|-----------------------------------------------------------------|
D|-----------------------------------------------------------------|
A|-333-333-333-333---------------------------------111-111-111-111-|
D|-----------------666-666-666-666-111-111-111-111-----------------|

G|-----------------------------------------------------------------|
D|-----------------------------------------------------------------|
A|-333-333-333-333---------------------------------111-111-111-111-|
D|-----------------666-666-666-666-111-111-111-111-----------------|

G|-----------------------------------------------------------------|
D|-------------3u5h666-666-666-8d6p555-555-555-6p5-----------------|
A|-333-333-333-------------------------------------888-888-888d6p5-|
D|-----------------------------------------------------------------|

G|-----------------------------------------------------------------|
D|-----------------------------------------------------------------|
A|-333-333-333-333-----------------666-666-666-666-111-111-111-111-|
D|-----------------666-666-666-666---------------------------------|

Pre-Chorus
G|---------------------------------|
D|---------------------------------|
A|-3m------------------------------|
D|---------8~------6m------8~------|

Chorus
G|----------------------------------------------------------|
D|----------------------------------------------------------|
A|-----------------------------66-666-8-6-5-6---------------|
D|-11-111-11-111-66-666-66-666----------------66-666-66-666-|

G|-------------------------------------------------------------|
D|-------------------------------------------------------------|
A|-----------------------------1-1-1-1-1-1-1-1-1-1-1-1-1-1-1-1-|
D|-11-111-11-111-66-666-66-666---------------------------------|

Breakdown
G|---------------------------------------------------------------------|
D|---------------------------------------------------------------------|
A|-3~---3h6-1~----------------1~-----3~---3h6-1~----------------1~-----|
D|---------------6p5-6~---5h6----------------------6p5-6~---5h6--------|

G|--------------------------------------------------------------------------------|
D|------3u5h6~---8d6p5~---6p5---------------3u5h6~---8d6p5~---6p5-8-8-8-8-8-8-8-8-|
A|-3~-------------------------8~---6p5-3~-----------------------------------------|
D|--------------------------------------------------------------------------------|

Chorus
G|----------------------------------------------------------|
D|----------------------------------------------------------|
A|-----------------------------66-666-8-6-5-6---------------|
D|-11-111-11-111-66-666-66-666----------------66-666-66-666-|

G|---------------------------------------------------------------------------------------------|
D|---------------------------------------------------------------------------------------------|
A|-----------------------------1-1-1-1-1-1-1-1-1-1-1-1-1-1-1-1---------------------------------|
D|-11-111-11-111-66-666-66-666---------------------------------6-6-6-6-6-6-6-6-6-6-6-6-6-6-6-6-|

Outro
G|--------------------------------------------------------------------------|
D|-5~-----6~-----5~------------5~-----6~-----5~-----8-8-8-8-8-8-8-8---------|
A|----------------------8~------------------------------------------6~------|
D|--------------------------------------------------------------------------|


-------------------------------------------------------------


Eb Version (GDAEb)
-------------------------------------------------------------

Intro
G|----------------------------------------------------------|
D|----------------------------------------------------------|
A|-----------------------------6666-6-8-6-5-6---------------|
D|-0000-0-0000-0-5555-5-5555-5----------------5555-5-5555-5-|

G|-------------------------------------------------------------|
D|-------------------------------------------------------------|
A|-----------------------------1-1-1-1-1-1-1-1-1-1-1-1-1-1-1-1-|
D|-0000-0-0000-0-5555-5-5555-5---------------------------------|

Verse
G|-----------------------------------------------------------------|
D|-----------------------------------------------------------------|
A|-333-333-333-333---------------------------------111-111-111-111-|
D|-----------------555-555-555-555-000-000-000-000-----------------|

G|-----------------------------------------------------------------|
D|-----------------------------------------------------------------|
A|-333-333-333-333---------------------------------111-111-111-111-|
D|-----------------555-555-555-555-000-000-000-000-----------------|

G|-----------------------------------------------------------------|
D|-------------3u5h666-666-666-8d6p555-555-555-6p5-----------------|
A|-333-333-333-------------------------------------888-888-888d6p5-|
D|-----------------------------------------------------------------|

G|-----------------------------------------------------------------|
D|-----------------------------------------------------------------|
A|-333-333-333-333-----------------666-666-666-666-111-111-111-111-|
D|-----------------555-555-555-555---------------------------------|

Pre-Chorus
G|---------------------------------|
D|---------------------------------|
A|-3m------------------------------|
D|---------7~------5m------7~------|

Chorus
G|----------------------------------------------------------|
D|----------------------------------------------------------|
A|-----------------------------66-666-8-6-5-6---------------|
D|-00-000-00-000-55-555-55-555----------------55-555-55-555-|

G|-------------------------------------------------------------|
D|-------------------------------------------------------------|
A|-----------------------------1-1-1-1-1-1-1-1-1-1-1-1-1-1-1-1-|
D|-00-000-00-000-55-555-55-555---------------------------------|

Verse
G|-----------------------------------------------------------------|
D|-----------------------------------------------------------------|
A|-333-333-333-333---------------------------------111-111-111-111-|
D|-----------------555-555-555-555-000-000-000-000-----------------|

G|-----------------------------------------------------------------|
D|-----------------------------------------------------------------|
A|-333-333-333-333---------------------------------111-111-111-111-|
D|-----------------555-555-555-555-000-000-000-000-----------------|

G|-----------------------------------------------------------------|
D|-------------3u5h666-666-666-8d6p555-555-555-6p5-----------------|
A|-333-333-333-------------------------------------888-888-888d6p5-|
D|-----------------------------------------------------------------|

G|-----------------------------------------------------------------|
D|-----------------------------------------------------------------|
A|-333-333-333-333-----------------666-666-666-666-111-111-111-111-|
D|-----------------555-555-555-555---------------------------------|

Pre-Chorus
G|---------------------------------|
D|---------------------------------|
A|-3m------------------------------|
D|---------7~------5m------7~------|

Chorus
G|----------------------------------------------------------|
D|----------------------------------------------------------|
A|-----------------------------66-666-8-6-5-6---------------|
D|-00-000-00-000-55-555-55-555----------------55-555-55-555-|

G|-------------------------------------------------------------|
D|-------------------------------------------------------------|
A|-----------------------------1-1-1-1-1-1-1-1-1-1-1-1-1-1-1-1-|
D|-00-000-00-000-55-555-55-555---------------------------------|

Breakdown
G|---------------------------------------------------------------------|
D|---------------------------------------------------------------------|
A|-3~---3h6-1~----------------1~-----3~---3h6-1~----------------1~-----|
D|---------------5p4-5~---4h5----------------------5p4-5~---4h5--------|

G|--------------------------------------------------------------------------------|
D|------3u5h6~---8d6p5~---6p5---------------3u5h6~---8d6p5~---6p5-8-8-8-8-8-8-8-8-|
A|-3~-------------------------8~---6p5-3~-----------------------------------------|
D|--------------------------------------------------------------------------------|

Chorus
G|----------------------------------------------------------|
D|----------------------------------------------------------|
A|-----------------------------66-666-8-6-5-6---------------|
D|-00-000-00-000-55-555-55-555----------------55-555-55-555-|

G|---------------------------------------------------------------------------------------------|
D|---------------------------------------------------------------------------------------------|
A|-----------------------------1-1-1-1-1-1-1-1-1-1-1-1-1-1-1-1---------------------------------|
D|-00-000-00-000-55-555-55-555---------------------------------5-5-5-5-5-5-5-5-5-5-5-5-5-5-5-5-|

Outro
G|--------------------------------------------------------------------------|
D|-5~-----6~-----5~------------5~-----6~-----5~-----8-8-8-8-8-8-8-8---------|
A|----------------------8~------------------------------------------6~------|
D|--------------------------------------------------------------------------|

Ah, another great song from the greatest band in the world! Have fun!

u - Slide up
d - Slide down
~ - Let note ring
m - Play note, then mute
h - Hammer off
p - Pull on





Comments


Popular Rise Against tabs & chords
Drones 2 Bass Tabs
Life Less Frightening Bass Tabs
The Unraveling 2 Bass Tabs
Sight Unseen Chords
Tip The Scales Chords
3 Day Weekend Tabs
Anyway You Want It 7 Tabs
Disparity By Design 1 Tabs
Everchanging 2 Tabs
Worth Dying For Tabs


Song lyrics



↑ Back to top | Tablatures and chords are parodies/interpretations of the original songs. You may use it for private study, scholarship, research or language learning purposes only
© 2014 AZChords.com Contact us | Privacy policy | DMCA | Add/correct tabs | Request tabs | Top 50 tabs