» » »

Alive And Well Bass tabs (ver.1)

Artists:  A B C D E F G H I J K L M N O P Q R S T U V W X Y Z # 

Alive And Well Bass tabs (ver.1)

Rise Against
Rating:
4/5 (1 vote)

Hard to play? Try these video lessons and learn fast.
                Band: Rise Against
Bassist: Joe Principe

INTRO

G|-10--101010--101010--101010--1010|-10--101010--101010--101010--10--|
D|-10--101010--101010--101010--1010|-10--101010--101010--101010--10--|
A|---------------------------------|---------------------------------|
E|---------------------------------|---------------------------------|
   1 + + + 2 + + + 3 + + + 4 + + +   1 + + + 2 + + + 3 + + + 4 + + + 

G|-10--101010--101010--101010--10--|-10--101010--101010--101010--10--|
D|-10--101010--101010--101010--10--|-10--101010--101010--101010--10--|
A|---------------------------------|---------------------------------|
E|---------------------------------|---------------------------------|
   1 + + + 2 + + + 3 + + + 4 + + +   1 + + + 2 + + + 3 + + + 4 + + + 

G|-10--101010--101010--101010--10--|-10--101010--101010--------------|
D|-10--101010--101010--101010--10--|-10--101010--101010--------------|
A|---------------------------------|---------------------------------|
E|---------------------------------|---------------------------------|
   1 + + + 2 + + + 3 + + + 4 + + +   1 + + + 2 + + + 3 + + + 4 + + + 

VERSE
G|-----------------|-----------------|-----------------|-----------------|
D|-----------------|-----------------|-----------------|-----------------|
A|---------3-------|---------1-1---1-|-------3---------|---------1-1---1-|
E|-1-1---1---3---3-|-4-4---4---------|-1-1-----3-3---3-|-4-4---4---------|
   1 + 2 + 3 + 4 +   1 + 2 + 3 + 4 +   1 + 2 + 3 + 4 +   1 + 2 + 3 + 4 + 

G|-----------------|-----------------|-----------------|-----------------|
D|-----------------|-----------------|-----------------|-----------------|
A|---------3-------|---------1-1---1-|-------3---------|---------1-1---1-|
E|-1-1---1---3---3-|-4-4---4---------|-1-1-----3-3---3-|-4-4---4---------|
   1 + 2 + 3 + 4 +   1 + 2 + 3 + 4 +   1 + 2 + 3 + 4 +   1 + 2 + 3 + 4 + 

G|-----------------|-----------------||
D|-----------------|-----------------||
A|-----------------|-----------------||
E|-1-1---1-1-1---1-|-1---------------||
   1 + 2 + 3 + 4 +   1 + 2 + 3 + 4 +   

CHORUS

G|-----------------|-----------------|-----------------|-----------------|
D|-----------------|-----------------|-----------------|-----------------|
A|-----------8---6-|-4-4---4-4-4---4-|-----------------|-4-4---4-4-4---4-|
E|-1-1---1-1-------|-----------------|-1-1---1-1-3---4-|-----------------|
   1 + 2 + 3 + 4 +   1 + 2 + 3 + 4 +   1 + 2 + 3 + 4 +   1 + 2 + 3 + 4 + 

G|-----------------|-----------------|-----------------|-----------------|
D|-----------------|-----------------|-----------------|-----------------|
A|-----------8---6-|-4-4---4-4-4---4-|-3-3---3-3---3-6-|---6-6-6-6-------|
E|-1-1---1-1-------|-----------------|-----------------|-------------4-3-|
   1 + 2 + 3 + 4 +   1 + 2 + 3 + 4 +   1 + 2 + 3 + 4 +   1 + 2 + 3 + 4 + 

G|-----------------|-----------------|-----------------|-----------------|
D|-----------------|-----------------|-----------------|-----------------|
A|-----------8---6-|-4-4---4-4-4---4-|-----------------|-4-4---4-4-4---4-|
E|-1-1---1-1-------|-----------------|-1-1---1-1-3---4-|-----------------|
   1 + 2 + 3 + 4 +   1 + 2 + 3 + 4 +   1 + 2 + 3 + 4 +   1 + 2 + 3 + 4 + 

G|-----------------|-----------------|-----------------|-----------------|
D|-----------------|-----------------|-----------------|-----------------|
A|-----------8---6-|-4-4---4-4-4---4-|-3-3---3-3---3-6-|---6-6-6-6-------|
E|-1-1---1-1-------|-----------------|-----------------|-------------4-3-|
   1 + 2 + 3 + 4 +   1 + 2 + 3 + 4 +   1 + 2 + 3 + 4 +   1 + 2 + 3 + 4 + 

INTERLUDE

G|-----------------|-----------------|-----------------|-----------------|
D|-----------------|-----------------|-----------------|-----------------|
A|-----------------|-----------------|-------3---------|---------1-1---1-|
E|-1---------------|-----------------|-1-1-----3-3---3-|-4-4---4---------|
   1 + 2 + 3 + 4 +   1 + 2 + 3 + 4 +   1 + 2 + 3 + 4 +   1 + 2 + 3 + 4 + 

VERSE

G|-----------------|-----------------|-----------------|-----------------|
D|-----------------|-----------------|-----------------|-----------------|
A|---------3-------|---------1-1---1-|-------3---------|---------1-1---1-|
E|-1-1---1---3---3-|-4-4---4---------|-1-1-----3-3---3-|-4-4---4---------|
   1 + 2 + 3 + 4 +   1 + 2 + 3 + 4 +   1 + 2 + 3 + 4 +   1 + 2 + 3 + 4 + 

G|-----------------|-----------------|-----------------|-----------------|
D|-----------------|-----------------|-----------------|-----------------|
A|---------3-------|---------1-1---1-|-------3---------|---------1-1---1-|
E|-1-1---1---3---3-|-4-4---4---------|-1-1-----3-3---3-|-4-4---4---------|
   1 + 2 + 3 + 4 +   1 + 2 + 3 + 4 +   1 + 2 + 3 + 4 +   1 + 2 + 3 + 4 + 

G|-----------------|-----------------||
D|-----------------|-----------------||
A|-----------------|-----------------||
E|-1-1---1-1-1---1-|-1---------------||
   1 + 2 + 3 + 4 +   1 + 2 + 3 + 4 +   

CHORUS

G|-----------------|-----------------|-----------------|-----------------|
D|-----------------|-----------------|-----------------|-----------------|
A|-----------8---6-|-4-4---4-4-4---4-|-----------------|-4-4---4-4-4---4-|
E|-1-1---1-1-------|-----------------|-1-1---1-1-3---4-|-----------------|
   1 + 2 + 3 + 4 +   1 + 2 + 3 + 4 +   1 + 2 + 3 + 4 +   1 + 2 + 3 + 4 + 

G|-----------------|-----------------|-----------------|-----------------|
D|-----------------|-----------------|-----------------|-----------------|
A|-----------8---6-|-4-4---4-4-4---4-|-3-3---3-3---3-6-|---6-6-6-6-------|
E|-1-1---1-1-------|-----------------|-----------------|-------------4-3-|
   1 + 2 + 3 + 4 +   1 + 2 + 3 + 4 +   1 + 2 + 3 + 4 +   1 + 2 + 3 + 4 + 

G|-----------------|-----------------|-----------------|-----------------|
D|-----------------|-----------------|-----------------|-----------------|
A|-----------8---6-|-4-4---4-4-4---4-|-----------------|-4-4---4-4-4---4-|
E|-1-1---1-1-------|-----------------|-1-1---1-1-3---4-|-----------------|
   1 + 2 + 3 + 4 +   1 + 2 + 3 + 4 +   1 + 2 + 3 + 4 +   1 + 2 + 3 + 4 + 

G|-----------------|-----------------|-----------------|-----------------|
D|-----------------|-----------------|-----------------|-----------------|
A|-----------8---6-|-4-4---4-4-4---4-|-3-3---3-3---3-6-|---6-6-6-6-------|
E|-1-1---1-1-------|-----------------|-----------------|-------------4-3-|
   1 + 2 + 3 + 4 +   1 + 2 + 3 + 4 +   1 + 2 + 3 + 4 +   1 + 2 + 3 + 4 + 

INTERLUDE

G|-----------------|-----------------|-----------------||
D|-----------------|-----------------|-----------------||
A|-----------------|-----------------|---------------3-||
E|-1---------------|-----------------|-1-1-1-1-1-1-1---||
   1 + 2 + 3 + 4 +   1 + 2 + 3 + 4 +   1 + 2 + 3 + 4 +   

BRIDGE

G|---------------------------------|---------------------------------|
D|---------------------------------|---------------------------------|
A|-4---4-4-4-4-4---4-4-4-4-4---3---|-6---6-6-6-6-6---6-6-6-6-6---3---|
E|---------------------------------|---------------------------------|
   1 + + + 2 + + + 3 + + + 4 + + +   1 + + + 2 + + + 3 + + + 4 + + + 

G|---------------------------------|---------------------------------|
D|---------------------------------|---------------------------------|
A|-6---6-6-6-6-6---6-6-6-6-6---3---|-8---8-8-8-8-8---8-8-8-8-8---3---|
E|---------------------------------|---------------------------------|
   1 + + + 2 + + + 3 + + + 4 + + +   1 + + + 2 + + + 3 + + + 4 + + + 

G|---------------------------------|---------------------------------|
D|---------------------------------|---------------------------------|
A|-4---4-4-4-4-4---4-4-4-4-4---3---|-6---6-6-6-6-6---6-6-6-6-6---3---|
E|---------------------------------|---------------------------------|
   1 + + + 2 + + + 3 + + + 4 + + +   1 + + + 2 + + + 3 + + + 4 + + + 

G|---------------------------------|---------------------------------|
D|---------------------------------|---------------------------------|
A|-6---6-6-6-6-6---6-6-6-6-6---3---|-8---8---8---8---8---8---8---3---|
E|---------------------------------|---------------------------------|
   1 + + + 2 + + + 3 + + + 4 + + +   1 + + + 2 + + + 3 + + + 4 + + + 

G|-----------------|-----------------|-----------------|-----------------|
D|-----------------|-----------------|-----------------|-----------------|
A|-4-4-4-4-4-4-4-3-|-6-6-6-6-6-6-6-3-|-6-6-6-6-6-6-6-3-|-8-8-8-8-8-8-8-3-|
E|-----------------|-----------------|-----------------|-----------------|
   1 + 2 + 3 + 4 +   1 + 2 + 3 + 4 +   1 + 2 + 3 + 4 +   1 + 2 + 3 + 4 + 

G|-----------------|-----------------|-----------------|-----------------|
D|-----------------|-----------------|-----------------|-----------------|
A|-4-4-4-4-4-4-4-3-|-6-6-6-6-6-6-6-3-|-6-6-6-6-6-6-6-3-|-8-8-8-8-8-8-8-3-|
E|-----------------|-----------------|-----------------|-----------------|
   1 + 2 + 3 + 4 +   1 + 2 + 3 + 4 +   1 + 2 + 3 + 4 +   1 + 2 + 3 + 4 + 

G|-----------------|-----------------|-----------------|-----------------|
D|-----------------|-----------------|-----------------|-----------------|
A|-4-4-4-4-4-4-4-3-|-6-6-6-6-6-------|-----------------|-----------------|
E|-----------------|-----------4---3-|-1-1-1-1-1-1-1-1-|-1---------------|
   1 + 2 + 3 + 4 +   1 + 2 + 3 + 4 +   1 + 2 + 3 + 4 +   1 + 2 + 3 + 4 + 

CHORUS

G|-----------------|-----------------|-----------------|-----------------|
D|-----------------|-----------------|-----------------|-----------------|
A|-----------8---6-|-4-4---4-4-4---4-|-----------------|-4-4---4-4-4---4-|
E|-1-1---1-1-------|-----------------|-1-1---1-1-3---4-|-----------------|
   1 + 2 + 3 + 4 +   1 + 2 + 3 + 4 +   1 + 2 + 3 + 4 +   1 + 2 + 3 + 4 + 

G|-----------------|-----------------|-----------------|-----------------|
D|-----------------|-----------------|-----------------|-----------------|
A|-----------8---6-|-4-4---4-4-4---4-|-3-3---3-3---3-6-|---6-6-6-6-------|
E|-1-1---1-1-------|-----------------|-----------------|-------------4-3-|
   1 + 2 + 3 + 4 +   1 + 2 + 3 + 4 +   1 + 2 + 3 + 4 +   1 + 2 + 3 + 4 + 

G|-----------------|-----------------|-----------------|-----------------|
D|-----------------|-----------------|-----------------|-----------------|
A|-----------8---6-|-4-4---4-4-4---4-|-----------------|-4-4---4-4-4---4-|
E|-1-1---1-1-------|-----------------|-1-1---1-1-3---4-|-----------------|
   1 + 2 + 3 + 4 +   1 + 2 + 3 + 4 +   1 + 2 + 3 + 4 +   1 + 2 + 3 + 4 + 

G|-----------------|-----------------|-----------------|-----------------|
D|-----------------|-----------------|-----------------|-----------------|
A|-----------8---6-|-4-4---4-4-4---4-|-3-3---3-3---3-6-|---6-6-6-6-------|
E|-1-1---1-1-------|-----------------|-----------------|-------------4-3-|
   1 + 2 + 3 + 4 +   1 + 2 + 3 + 4 +   1 + 2 + 3 + 4 +   1 + 2 + 3 + 4 + 

G|-----------------||
D|-----------------||
A|-----------------||
E|-1---------------||
   1 + 2 + 3 + 4 +  
            
Hard to play? Try these video lessons and learn fast. | Correct




comments powered by Disqus
↑ Back to top | Tablatures and chords are parodies/interpretations of the original songs. You may use it for private study, scholarship, research or language learning purposes only