» » »

Rise Against, Alive And Well Tabs (ver.1)

Artists:  A B C D E F G H I J K L M N O P Q R S T U V W X Y Z # 

Alive And Well Tabs (ver.1)

Rise Against Tabs
 Rating:
4/5 (6 votes)
Alive And Well lessons Tabs too difficult? Try these video lessons and learn fast
1
                Band- Rise Against
Song- Alive And Well

(intro) “are you ready to rock?”
e|-------------------------------------------------------------------|
B|-------------------------------------------------------------------|
G|-------------------------------------------------------------------|
D|-3-3-3--------3-3-3------3-3-3-------------------------------------|
A|-3-3-3--------3-3-3------3-3-3-------------------------------------|
E|-1-1-1--------1-1-1------1-1-1-------------------------------------|

e|-------------------------------------------------------------------|
B|-------------------------------------------------------------------|
G|-------------------------------------------------------------------|
D|-3-3-5-5-6-6-8-8---3-3-5-5-6-6-8-8---3-3-5-5-6-6-8-8---------------|
A|-3-3-5-5-6-6-8-8---3-3-5-5-6-6-8-8---3-3-5-5-6-6-8-8---------------|
E|-1-1-3-3-4-4-6-6---1-1-3-3-4-4-6-6---1-1-3-3-4-4-6-6---------------|

e|-------------------------------------------------------------------|
B|-------------------------------------------------------------------|
G|-10-5--6--8--------------------------------------------------------|
D|-------------------------------------------------------------------|
A|-8--3--4--6----3-3-3-3-3-3-----------------------------------------|
E|---------------1-1-1-1-1-1-----------------------------------------|

(chorus starts when singer sings “well”) this chorus is played twice
e|-------------------------------------------------------------------|
B|-----10-------10-------10--5555--88888-----------------------------|
G|-3---10---3---10---3---10--5555--88888-----------------------------|
A|-3---8----3---8----3---8---3333--66666-----------------------------|
E|-1--------1--------1-----------------------------------------------|

“Alive and Well!”
e|-------------------------------------------------------------------|
B|-------------------------------------------------------------------|
G|-------------------------------------------------------------------|
D|-3-3-5-5-6-6-8-8---3-3---------------------------------------------|
A|-3-3-5-5-6-6-8-8---3-3---------------------------------------------|
E|-1-1-3-3-4-4-6-6---1-1-(pause)-------------------------------------|

(chorus starts when singer says words)
e|-------------------------------------------------------------------|
B|-------------------------------------------------------------------|
G|-------------------------------------------------------------------|
D|-3-3-5-5-6-6-8-8—--3-3-5-5-6-6-8-8---3-3-5-5-6-6-8-8---------------|
A|-3-3-5-5-6-6-8-8—--3-3-5-5-6-6-8-8---3-3-5-5-6-6-8-8---------------|
E|-1-1-3-3-4-4-6-6—--1-1-3-3-4-4-6-6—--1-1-3-3-4-4-6-6---------------|

e|-------------------------------------------------------------------|
B|-------------------------------------------------------------------|
G|-10--5--6--8-------------------------------------------------------|
D|---------------------3-3-3-3-3-3-3---------------------------------|
A|-8---3--4--6---------3-3-3-3-3-3-3---------------------------------|
E|---------------------1-1-1-1-1-1-1---------------------------------|

e|--------------------------------------------------------------------|
B|--------------------------------------------------------------------|
G|---------------------6-6---8-8-8---10-6--8--88----------------------|
D|---3-3-3-3-3-3-3----------------------------------------------------|
A|---3-3-3-3-3-3-3-----4-4---6-6-6---8--4--6--66----------------------|
E|---1-1-1-1-1-1-1----------------------------------------------------|
< --- p.m. -----------------------------------------------------------| >

(this parts like a solo or something)
e|-------------------------------------------------------------------|
B|-------------------------------------------------------------------|
G|--13-13-13-13--12-12-12-12--15-15-15-15--12-12-12-12--17-15-13-12--|
D|-------------------------------------------------------------------|
A|--11-11-11-11--10-10-10-10--13-13-13-13--10-10-10-10--15-13-11-10--|
E|-------------------------------------------------------------------|

e|-------------------------------------------------------------------|
B|-------------------------------------------------------------------|
G|-10-10-10-10--8-8-8-8---17-16-19-17--13-13-13-13-12-12-12-12-------|
D|-------------------------------------------------------------------|
A|-8--8--8--8---6-6-6-6---15-14-17-15--11-11-11-11-10-10-10-10-------|
E|-------------------------------------------------------------------|

Second set of cords start when singer says “well”
e|-------------------------------------------------------------------|
B|-------------------------------------------------------------------|
G|---------------------------------10--------10--------10------------|
D|-3-3-3-3-3-3-3---------------3---10---3----10---3----10------------|
A|-3-3-3-3-3-3-3---------------3---8----3----8----3----8-------------|
E|-1-1-1-1-1-1-1---------------1--------1---------1------------------|
“Alive and Well!”

e|-------------------------------------------------------------------|
B|-------------------------------------------------------------------|
G|-5555-88888--------------------------------------------------------|
D|-5555-88888--------------------------------------------------------|
A|-3333-66666--------------------------------------------------------|
E|-------------------------------------------------------------------|

Second set of cords start when singer says “well”
e|-------------------------------------------------------------------|
B|-------------------------------------------------------------------|
G|-------------------10--------10--------10--------------------------|
D|---------------3---10---3----10---3----10--------------------------|
A|---------------3---8----3----8----3----8---------------------------|
E|---------------1--------1---------1--------------------------------|

e|-------------------------------------------------------------------|
B|-------------------------------------------------------------------|
G|-5555-88888--------------------------------------------------------|
D|-5555-88888--3------------3-----------3----------------------------|
A|-3333-66666--3------------3-----------3----------------------------|
E|-------------1------------1-----------1----------------------------|
Let ring . . let ring . . let ring . .

Extra: this is that weird bass line for the beginning of the song.

e|-------------------------------------------------------------------|
B|-------------------------------------------------------------------|
G|-------------------------------------------------------------------|
D|-3-333-333-333------333-333-333-----333-333-333--------------------|
A|-3-333-333-333------333-333-333-----333-333-333--------------------|
            
Submit corrections

comments powered by Disqus
↑ Back to top | Rise Against Tabs for Alive And Well. Lyrics for acoustic guitar and electric guitar. 1 Tablatures and chords are parodies/interpretations of the original songs. You may use it for private study, scholarship, research or language learning purposes only