» » »

Rise Against, 6 Ways Til Sunday Tabs (ver.1)

Artists:  A B C D E F G H I J K L M N O P Q R S T U V W X Y Z # 

6 Ways Til Sunday Tabs (ver.1)

Rise Against Tabs
 Rating:
4/5 (4 votes)
6 Ways Til Sunday lessons Tabs too difficult? Try these video lessons and learn fast
                Intro 

e|----------------| 
B|----------------| 
G|----9-----------| 
D|-2--9-9---------| 
A|-2--7-9---------| 
E|-0----7---------| 


Verse2x figure this isnt the exact repetition 
e|-------------------------------| 
B|-------------------------------| 
G|----99999----------------------| 
D|----99999--99999--77777--99999-| 
A|----77777--99999--77777--99999-| 
E|-----------77777--55555--77777-| 


Start right after the words " Is all you know!" The Chorus goes: 

e|------------------------------------| 
B|------------------------------------| 
G|---666------------------------------| 
D|---666--999--777777--222222--999999-| 
A|---444--999--777777--222222--999999-| 
E|--------777--555555--000000--777777-| 

("youve been hiding so long you cant find yourself") 

e|------------------------------------| 
B|------------------------------------| 
G|---666--888--999999-----------------| 
D|---666--888--999999--222222--999999-| 
A|---444--666--777777--222222--999999-| 
E|---------------------000000--777777-| 

("In this sheltered life you live") 

Repeat those two lines for the last part of the chorus. 

the verses are repeated the same way as well. 

e|----------------------------------------------| 
B|----------------------------------------------| 
G|---------------------------------99999999-----| 
D|---22222222--99999999--77777777--99999999-----| 
A|---22222222--99999999--77777777--77777777-----| 
E|---00000000--77777777--55555555---------------| 
("Your the new revolution") 
Palm mute the first couple times. 

OUTRO 
e|----------------------------------------------| 
B|----------------------------------------------| 
G|---99999999----------------------99999999-----| 
D|---99999999--99999999--77777777--99999999-----| 
A|---77777777--99999999--77777777--77777777-----| 
E|-------------77777777--55555555---------------|
            
Submit corrections

comments powered by Disqus
↑ Back to top | Rise Against Tabs for 6 Ways Til Sunday. Lyrics for acoustic guitar and electric guitar. Tablatures and chords are parodies/interpretations of the original songs. You may use it for private study, scholarship, research or language learning purposes only