» » »

Rise Against, 3 Day Weekend Bass tabs (ver.2)

Artists:  A B C D E F G H I J K L M N O P Q R S T U V W X Y Z # 

3 Day Weekend Bass tabs (ver.2)

Rise Against Tabs
 Rating:
4/5 (4 votes)
3 Day Weekend lessons Tabs too difficult? Try these video lessons and learn fast
                BASS TAB

TUNING: Eb Ab Db Gb
INTRO

Gb|-8-8-8-8-8---8-7---7-7---7-7-7-7--|-5-5-5-5-5---5-3---3-3---3-3-3-3-|
Db|----------------------------------|---------------------------------|
Ab|----------------------------------|---------------------------------|
Eb|----------------------------------|---------------------------------|
    1 + + + 2 + + + 3 + + + 4 + + +    1 + + + 2 + + + 3 + + + 4 + + + 

Gb|-1010101010--108---8-8---8-8-8-8--|-7-7-7-7-7---7-5---5-5---5-5-5-5-|
Db|----------------------------------|---------------------------------|
Ab|----------------------------------|---------------------------------|
Eb|----------------------------------|---------------------------------|
    1 + + + 2 + + + 3 + + + 4 + + +    1 + + + 2 + + + 3 + + + 4 + + + 


Gb|-8-8-8-8-8---8-7---7-7---7-7-7-7--|-5-5-5-5-5---5-3---3-3---3-3-3-3-|
Db|----------------------------------|---------------------------------|
Ab|----------------------------------|---------------------------------|
Eb|----------------------------------|---------------------------------|
    1 + + + 2 + + + 3 + + + 4 + + +    1 + + + 2 + + + 3 + + + 4 + + + 

Gb|-1010101010--108---8-8---8-8-8-8--|---------------------------------|
Db|----------------------------------|---------------------------------|
Ab|----------------------------------|---------------------------------|
Eb|----------------------------------|-1~------------------------------|
    1 + + + 2 + + + 3 + + + 4 + + +    1 + + + 2 + + + 3 + + + 4 + + + 

VERSE

Gb|----------------------------------|---------------------------------|
Db|-6-6-6-6--------------------------|-6-6-6-6-------------------------|
Ab|---------6-6-6-6------------------|---------6-6-6-6-----------------|
Eb|-----------------6-6-6-6-8-8-8-8--|-----------------6-6-6-6-8-8-8-8-|
    1 + + + 2 + + + 3 + + + 4 + + +    1 + + + 2 + + + 3 + + + 4 + + + 

Gb|----------------------------------|---------------------------------|
Db|-6-6-6-6-8-8-8-8-8-8-8-8-5-5-5-5--|---------------------------------|
Ab|----------------------------------|---------6-6-6-6-----------------|
Eb|----------------------------------|-4-4-4-4---------6-6-6-6-8--8--8-|
    1 + + + 2 + + + 3 + + + 4 + + +    1 + + + 2 + + + 3 + + + 4 + + + 

CHORUS

Gb|----------------------------------|---------------------------------|
Db|----------------------------------|-------------------------6-------|
Ab|----------------------------------|---------------------6-------6---|
Eb|-4---4-4-4---4-4-4---4-4-4---4-4--|-4---4-4-4---4-4-4---------------|
    1 + + + 2 + + + 3 + + + 4 + + +    1 + + + 2 + + + 3 + + + 4 + + + 

Gb|----------------------------------|---------------------------------|
Db|----------------------------------|---------------------8-----------|
Ab|----------------------------------|-------------------------8-------|
Eb|-6---6-6-6---6-6-6---6-6-6---6-6--|-6---6-6-6---6-6-6-----------6---|
    1 + + + 2 + + + 3 + + + 4 + + +    1 + + + 2 + + + 3 + + + 4 + + + 

Gb|----------------------------------|---------------------------------|
Db|----------------------------------|-------------------------6-------|
Ab|----------------------------------|---------------------6-------6---|
Eb|-4---4-4-4---4-4-4---4-4-4---4-4--|-4---4-4-4---4-4-4---------------|
    1 + + + 2 + + + 3 + + + 4 + + +    1 + + + 2 + + + 3 + + + 4 + + + 

Gb|----------------------------------|---------------------------------|
Db|----------------------------------|---------------------------------|
Ab|----------------------------------|---------------------------------|
Eb|-6-6-6-6-6-6-6-6-6-6-6-6-6-6-6-6--|-6-6-6-6-6-6-6-6-6---6---6---6---|
    1 + + + 2 + + + 3 + + + 4 + + +    1 + + + 2 + + + 3 + + + 4 + + + 

VERSE

Gb|----------------------------------|---------------------------------|
Db|-6-6-6-6--------------------------|-6-6-6-6-------------------------|
Ab|---------6-6-6-6------------------|---------6-6-6-6-----------------|
Eb|-----------------6-6-6-6-8-8-8-8--|-----------------6-6-6-6-8-8-8-8-|
    1 + + + 2 + + + 3 + + + 4 + + +    1 + + + 2 + + + 3 + + + 4 + + + 

Gb|----------------------------------|---------------------------------|
Db|-6-6-6-6-8-8-8-8-8-8-8-8-5-5-5-5--|---------------------------------|
Ab|----------------------------------|---------6-6-6-6-----------------|
Eb|----------------------------------|-4-4-4-4---------1~--------------|
    1 + + + 2 + + + 3 + + + 4 + + +    1 + + + 2 + + + 3 + + + 4 + + + 
            
Submit corrections

comments powered by Disqus
↑ Back to top | Rise Against Bass for 3 Day Weekend. Lyrics for acoustic guitar and electric guitar. Tablatures and chords are parodies/interpretations of the original songs. You may use it for private study, scholarship, research or language learning purposes only