» » »

Riot, No Lies Tabs (ver.1)

Artists:  A B C D E F G H I J K L M N O P Q R S T U V W X Y Z # 

No Lies Tabs (ver.1)

Riot Tabs
 Rating:
4/5 (4 votes)
No Lies lessons Tabs too difficult? Try these video lessons and learn fast
                -----------------------------------------------------------------
-----------------------------------------------------------------

Tuning: Standard


The song alternates between these three parts:


e|-------- --2-----------------0---------------------------------|
B|--------- ---5-4p2-----------0---0-----------------------------|
G|-----4---- --------4-------2-----------------------------------|
D|---4---4-----------------2-----2-------------------------------|
A|-2---------------------0---------------------------------------|
E|---------------------------------------------------------------|



e|---------------------------------------------------------------|
B|---------------------------------------------------------------|
G|---------------------------------------------------------------|
D|-4-4-4-4-4-4-4-4-4-4-4-4-4-4-4-4-2-2-2-2-2p0---2-0-4-4---------|
A|-2-2-2-2-2-2-2-2-2-2-2-2-2-2-2-2-0-0-0-0---- 0-0-0-2-2---------|
E|---------------------------------------------------------------|




e|-----------------------------------------3---------------------|
B|-----------------------------------------3---------------------|
G|-2---------------2---4---2---------------0-2-4-----------------|
D|-2-6-------------2-2-4---2-6-------------0-2-4-----------------|
A|-0-6----------2--0-2-2---0-6----------2--x-0-2-----------------|
E|---4--4-2-4-5------0-------4--2-4-4/5----3---------------------|



| /  slide up
| \  slide down
| h  hammer-on
| p  pull-off
| ~  vibrato
| +  harmonic
| x  Mute note
            
Submit corrections

comments powered by Disqus
↑ Back to top | Riot Tabs for No Lies. Lyrics for acoustic guitar and electric guitar. Tablatures and chords are parodies/interpretations of the original songs. You may use it for private study, scholarship, research or language learning purposes only