» » »

Riot, Bloodstreets Tabs (ver.1)

Artists:  A B C D E F G H I J K L M N O P Q R S T U V W X Y Z # 

Bloodstreets Tabs (ver.1)

Riot Tabs
Rating:
2/5 (1 vote)
Bloodstreets lessons Tabs too difficult? Try these video lessons and learn fast
                BLOODSTREETS (Riot)



   Rh.Fig.1............................................ 

     Em                        D                        
E||-------------0-----------|--------------2-----------|
B||----------0-----0-----0--|--------3--------3--------|
G||-------0-----------0-----|-----2-----2--------2-----|
D||-------------------------|--0--------------------0--|
A||-------------------------|--------------------------|
E||--0----------------------|--------------------------|


 ............................................................................
  G                         C           D              Em                      
|------------3-----------|-----------0-----------2--|-------------0----------|
|---------0-----0--------|--------1-----------3-----|----------0-----0-----0-|
|------0-----------0-----|-----0-----------2--------|-------0-----------0----|
|------0--------------0--|--------------0-----------|------------------------|
|------2-----------------|--3-----------------------|------------------------|
|-3----------------------|--------------------------|--0---------------------|


 .............................................................................
  D                         G                         C           G/B          
|-------------2-----------|------------3-----------|-----------0--------------|
|-------3--------3--------|---------0-----0--------|--------1--------------0--|
|----2-----2--------2-----|------0-----------0-----|-----0--------------0-----|
|-0--------------------0--|------0--------------0--|-----------------0--------|
|-------------------------|------2-----------------|--3-----------2-----------|
|-------------------------|-3----------------------|--------------------------|


 ......................................................
   A                                                   
|--------------0-----------|--------------0-----------|
|-----------2-----2--------|-----------2-----2--------|
|--------2-----------2-----|--------2-----------2-----|
|-----2-----------------2--|-----2-----------------2--|
|--0-----------------------|--0-----------------------|
|--------------------------|--------------------------|


 .........................................................
   G                                          C      Bm    
|---------------------------|--3--------------0------2----|
|--------------3-5-3-----3--|-----------------1------3----|
|-----------4---------4-----|-----------------0------4----|
|--------5------------------|-----------------2------4----|
|-----5---------------------|-----------------3------2----|
|--3------------------------|-----------------------------|


  .......................................End Rh.Fig.1
     A                                               
|----0-------------------|--------------------------|
|----2-------------------|--------------------------|
|----2------11--9--7--9--|--7--6--7--6--4--6--4-----|
|----2------9---7--5--7--|--5--4--5--4--2--4--2--7--|
|----0-------------------|-----------------------5--|
|------------------------|--------------------------|

  Rh.Fig.2..............................................
    Em                                                  
||---------------0-----------|--------------0-----------|
||o--------0--------0-----0--|--------0--------0-----0--|
||------0-----0--------0-----|-----0-----0--------0-----|
||---------------------------|--------------------------|
||o--------------------------|--------------------------|
||---0-----------------------|--0-----------------------|
       I was born on these   streets          years a-
     hood   fast   on   my      feet       I   was  e-


 ........................................End Rh.Fig.2  Fill.1...End Fill.1
                            C           D                C                 
|--------------0-----------|-----------0-----------2---||--0----------------|
|--------0--------0-----0--|--------1-----------3------||--1----------------|
|-----0-----0--------0-----|-----0-----------2--------*||--0----------------|
|--------------------------|--------------0-----------*||--2----------------|
|--------------------------|--3------------------------||--3----------------|
|--0-----------------------|---------------------------||-------------------|
  go    I    was     the    king of the neighbor
  lite   I    was     the    star              that       shone.


 Rh.Fig.3...........................................
           C5   B5      E5                           
|--------------------|------------------------------|
|--------------------|------------------------------|
|----------5----4----|--9------9------9------9------|
|----------5----4----|--9------9------9------9------|
|----------3----2----|--7--7-7-7--7-7-7--7-7-7--7-7-|
|--------------------|------------------------------|

 .............................................................
                                                              

|------------------------------|------------------------------|
|------------------------------|------------------------------|
|--9------9------9------9------|--9------9------9------9------|
|--9------9------9------9------|--9------9------9------9------|
|--7--7-7-7--7-7-7--7-7-7--7-7-|--7--7-7-7--7-7-7--7-7-7--7-7-|
|------------------------------|------------------------------|

 .................End Rh.Fig.3
                   C5   B5                           
|----------------------------|
|----------------------------|
|--9------9--------5----4----|
|--9------9--------5----4----|
|--7--7-7-7--7-7---3----2----|
|----------------------------|

  Rh.Fig.4......................................................
     E5                           
||-------------------------------|------------------------------|
||o------------------------------|------------------------------|
||---9------9------9------9------|--9------9------9------9------|
||---9------9------9------9------|--9------9------9------9------|
||o--7--7-7-7--7-7-7--7-7-7--7-7-|--7--7-7-7--7-7-7--7-7-7--7-7-|
||-------------------------------|------------------------------|
              This task  must be   done           I will not 
     die      this war    I will   win            so let it be-
 


 ..............................................End Rh.Fig.4
                                  C5       B5   D5         
|------------------------------|---------------------------||
|------------------------------|--------------------------o||
|--9------9------9------9------|--5-------------4----7-----||
|--9------9------9------9------|--5-------------4----7-----||
|--7--7-7-7--7-7-7--7-7-7--7-7-|--3-------------2----5----o||
|------------------------------|---------------------------||
   run            I will not     lay     me    down to
   gin           deep in my     heart there's a bur ning


 Rh.Fig.5.............................................
   C5                                                  
|--------------------------|--------------------------|
|--------------------------|--------------------------|
|--5--------5--------5-----|-----5--------5-----5-----|
|--5--------5--------5-----|-----5--------5-----5-----|
|--3--3--3--3--3--3--3--3--|--3--3--3--3--3--3--3--3--|
|--------------------------|--------------------------|
  fire.                           And I can't let it

..........................................End Rh.Fig.5
   D5                                                  
|--------------------------|--------------------------|
|--------------------------|--------------------------|
|--7--------7--------7-----|-----7--------7-----7-----|
|--7--------7--------7-----|-----7--------7-----7-----|
|--5--5--5--5--5--5--5--5--|--5--5--5--5--5--5--5--5--|
|--------------------------|--------------------------|
   go.                                             A-

 Rh.Fig.6.............................................
  E5           F#5           C5          G5         
|-------------------------|---------------------------|
|-------------------------|---------------------------|
|--9------------11--------|--5-----------12-----------|
|--9------------11--------|--5-----------12-----------|
|--7------------9---------|--3-----------10-----------|
|-------------------------|---------------------------|
   lone in the night      I know I must fight for my

..........................................End Rh.Fig.6
   D5                                                  
|--------------------------|--------------------------|
|--------------------------|--------------------------|
|--7-----------------------|--------4--5--4-----------|
|--7-----------------------|--5--7-----------7--5--4--|
|--5--5--5--5--5--5--5--5--|--------------------------|
|--------------------------|--------------------------|
   home.


 Rh.Fig.7....................................................
  E5   E5              F#5                 G5                
|--------------------|-------------------|-------------------|
|--------------------|-------------------|-------------------|
|-------9------------|-------------------|-------------------|
|--2----9------------|--4----------------|--5----------------|
|--2----7------------|--4----------------|--5----------------|
|--0-----------------|--2----------------|--3----------------|
         Time has     changed the seasons     and I go  

 .................................................................. 
   A5          G5             E5                  F#5               
|--------------------------|-------------------|-------------------|
|--------------------------|-------------------|-------------------|
|--------------------------|-------------------|-------------------|
|--7--7--x--7--5--5--x--5--|--2----------------|--4----------------|
|--7--7--x--7--5--5--x--5--|--2----------------|--4----------------|
|--5--5--x--5--3--3--x--3--|--0----------------|--2----------------|
   on  with no reason            I feel my        life slipping a-

 .........................................................................
   G5                                                    E5                 
|--------------------------|--------------------------|------------------------|
|--------------------------|--------------------------|------------------------|
|--------------------------|--------4--5--4-----------|-------9----------------|
|--5-----------------------|--5--7-----------7--5--4--|--2----9----------------|
|--5-----------------------|--------------------------|--2----7----------------|
|--3--3--3--3--3--3--3--3--|--------------------------|--0---------------------|
  way                                                          These streets are

 .................................................................
   F#5                 G5                  A5          G5           
|-------------------|-------------------|--------------------------|
|-------------------|-------------------|--------------------------|
|-------------------|-------------------|--------------------------|
|--4----------------|--5----------------|--7--7--x--7--5--5--x--5--|
|--4----------------|--5----------------|--7--7--x--7--5--5--x--5--|
|--2----------------|--3----------------|--5--5--x--5--3--3--x--3--|
   getting colder       and I am            growing    older

 ...................................................................
   E5                   F#5                 G5                       
|--------------------|-------------------|--------------------------|
|--------------------|-------------------|--------------------------|
|-------9------------|-------------------|--------------------------|
|--2----9------------|--4----------------|--5-----------------------|
|--2----7------------|--4----------------|--5-----------------------|
|--0-----------------|--2----------------|--3--3--3--3--3--3--3--3--|
         tomorrow      seems so far  a-    way

..............End Rh.Fig.7
                            

|--------------------------|
|--------------------------|
|--------4--5--4-----------|
|--5--7-----------7--5--4--|
|--------------------------|
|--------------------------|


  Rh.Fig.8.................................End Rh.Fig.8
   E5            E5             E5          C5   B5    4x
||---------------------------|-------------------------||
||o--------------------------|------------------------o||
||---------------------------|--------------5----4-----||
||---2--2--4--5--2--2--4--5--|--2--2--4--5--5----4-----||
||o--2--2--------2--2--------|--2--2--------3----2----o||
||---0--0--------0--0--------|--0--0-------------------||
  


 Rh.Fig.9..........................................End Rh.Fig.9
   A5              B5             C5             D5                
|---------------|--------------|--------------|---------------|
|---------------|--------------|--------------|---------------|
|--2-----2-4-5--|--4----4-5-7--|--5----5-7-9--|--7------------|
|--2------------|--4-----------|--5-----------|--7------------|
|--0------------|--2-----------|--3-----------|--5------------|
|---------------|--------------|--------------|---------------|


 Rh.Fig.10 w/Solo...........................................End Rh.Fig.10
                        |1,2,3 times|4th time   
    E5      C5     D5   |   B5   4x |  B5                                
||-------|------|-------|----------||-----------------|-----------------|
||o------|------|-------|---------o||-----------------|-----------------|
||---9---|--5---|--7----|-4--------||-4---------------|-----------------|
||---9---|--5---|--7----|-4--------||-4---------------|-----------------|
||o--7---|--3---|--5----|-2-------o||-2-2-2-2-2-2-2-2-|-2-2-2-2-2-2-2-2-|
||-------|------|-------|----------||-----------------|-----------------|

 
   Rh.Fig.11............................................
     Em                         Em7                         
||---------------------------|-------------------------|
||o--------12----------12----|-------12----------12----|
||------12----12----12----12-|----12----12----12----12-|
||---14----------14----------|-12----------12----------|
||o--------------------------|-------------------------|
||---------------------------|-------------------------|
        What  become of once friends  You're one till the
     Gleam. This town knew our names   but nothing's the   

  .........................................End Rh.Fig.11
   Em5+                       C5            B5   D5      
|--------------------------|---------------------------||
|-------12----------12-----|--------------------------o||
|----12----12----12----12--|--5-------------4----7-----||
|-10----------10-----------|--5-------------4----7-----||
|--------------------------|--3-------------2----5----o||
|--------------------------|---------------------------||
  end        now     I be-   long in the street light 
  same the places I         played   have forgotten the



Repeat Rh.fig.5 w/bridge
dream.

Repeat Rh.Fig.6 w/pre chorus
 

Repeat Rh.Fig.7 w/Chorus

Repeat Rh.Fig.7 till end w/ solo

Lyrics:

Intro:   I was born on these streets years ago
         I was the king of the neighborhood   
         Fast on my feet I was elite
         I was the star that shone

Verse 1: This task must be done I will not run
         I will not lay me down to die
         This war I will win so let it begin
         Deep in my heart there's a burning fire

Bridge:  And I can't let it go
         

Pre-chorus: Alone in the night I know I must fight for my home

Chorus: Time has changed the seasons and I go on with no reason
        I feel my life slipping away                                  
        These streets are getting colder and I am growing older
        Tomorrow seems so far away

Verse2: What become of once friends you're one till the end
        Now I belong in the street light gleam
        This town knew our names but nothing's the same
        The places I played have forgotten the dream
 

Bridge:  And I can't let it go
         

Pre-chorus: Alone in the night I know I must fight for my home

Chorus: Time has changed the seasons and I go on with no reason
        I feel my life slipping away                  
        These streets are getting colder and I am growing older
        Tomorrow seems so far away
            
Submit corrections

comments powered by Disqus
↑ Back to top | Riot Tabs for Bloodstreets. Lyrics for acoustic guitar and electric guitar. Tablatures and chords are parodies/interpretations of the original songs. You may use it for private study, scholarship, research or language learning purposes only