» » »

Right Said Fred, I'm Too Sexy Tabs (ver.1)

Artists:  A B C D E F G H I J K L M N O P Q R S T U V W X Y Z # 

I'm Too Sexy Tabs (ver.1)

Right Said Fred Tabs
 Rating:
4/5 (4 votes)
I'm Too Sexy lessons Tabs too difficult? Try these video lessons and learn fast
                
x sractch note

Standard Tuning Arranged for Guitar/Acoustic

-------|-------------------------------------------------|--|-----------------|
-------|-------------------------------------------------|--|-----------------|
-------|-4-6-4-6--4--4-6-4-6--7--7-6-7-6--4--4-6-4-6--4--|--|-----------------|
-------|-------------------------------------------------|--|-----------------|
-------|-------------------------------------------------|--|-----------------|
-------|-------------------------------------------------|--|-----------------|
        Intro Riff (G2)

-------|--------------|--|----------------------------------------------------|
-------|--------------|--|----------------------------------------------------|
-------|--------------|--|----------------------------------------------------|
-------|-6---7---4----|--|----------------------------------------------------|
-------|-7---5---2----|--|----------------------------------------------------|
-------|-x---x---x----|--|----------------------------------------------------|
        Intro/Verse/Chorus Chords Strum (G1)



-------|-----------|----------------------------------------------------------|
-------|-----------|----------------------------------------------------------|
-------|-4--7--4---|----------------------------------------------------------|
-------|-----------|----------------------------------------------------------|
-------|-----------|----------------------------------------------------------|
-------|-----------|----------------------------------------------------------|
       Trumpet (G2)
            
Submit corrections

comments powered by Disqus
↑ Back to top | Right Said Fred Tabs for I'm Too Sexy. Lyrics for acoustic guitar and electric guitar. Tablatures and chords are parodies/interpretations of the original songs. You may use it for private study, scholarship, research or language learning purposes only