>
 >
Ox4

Ox4 Guitar Tabs

Ride - Ox4 chords, tabs, tablatures, lyrics

Guitar lessons | Add/correct | Request | Top 50 tabs Artists:  A B C D E F G H I J K L M N O P Q R S T U V W X Y Z 0-9

Ox4 Guitar Tabs – Ride

CD, Sheet music, Poster

Do you like Ox4? Share with your friends now
Tabs
I've been looking for tab of this song for ages and as I couldn't find one, I decided to 
it myself. I'm pretty sure it isn't 100% accurate, but I tried! ;) Enjoy :)

INTRO:

E---2-0-0-2-2-0-0-----2-0-2-2-2-0-0------2-0-0---2-0-2p0------|
B------2-------2-----------------2------2-----0h2-0-----2-----|
G-2------------------1----------------------------------------|
D-------------------------------------------------------------|
A-------------------------------------------------------------|
E-------------------------------------------------------------|

E---------|
B-222-----|
G-222--x3-|
D-222-----|
A---------|
E---------|


(Either bend these notes or use a slide:)
E--------------------------------|
B--12/14---7/9---5/7----12/14----|
G-9--------------------9---------|
D--------------------------------|
A--------------------------------|
E--------------------------------|

E----------14/16---12/14---------|
B--12/14-------------------12\10-|
G-9------------------------------|
D--------------------------------|
A--------------------------------|
E--------------------------------|

A
Never been so far away

E                                    D
I don't think I want to stay in this room

   A
Anymore

A
If I crawl across the floor

E                          D
Then I'd be closer to that door

A
It's too far

(Play each of these notes once with a slide or tremolo pick:)
E-----------------|
B-2/5/9--10\7\2---|
G-----------------|
D-----------------|
A-----------------|
E-----------------|

A
Never been so far away

E                                D
Just lost the last thought in my head

A
What happens now?

A
Some fantasy you've been

E                        D
Pick up the pieces in my mind

A
I'm going...


E-----------------------------------------------|
B-9999-7777-555555/9999-77-555-77777777--x3--2--|
G-----------------------------------------------|
D-----------------------------------------------|
A-----------------------------------------------|
E-----------------------------------------------|

          A
I'm going home

Play INTRO x2

SOLO:

E---------------------------------------------------------|
B-7\5-5--7p5-7p5-3-2-2/3-3--2h3/5\3-3--5\3-5\3-2--3-2h3/5-|
G---------------------------------------------------------|
D---------------------------------------------------------|
A---------------------------------------------------------|
E---------------------------------------------------------|

E---------------------------------------------------------|
B-7\5-5-9\7-5-7-5-5-7/9-9--7\5-5\3-3--/5-3-5-3-2--3p2h3/5-|
G---------------------------------------------------------|
D---------------------------------------------------------|
A---------------------------------------------------------|
E---------------------------------------------------------|

Repeat to fade





Comments


Popular Ride tabs & chords
Cool Your Boots Chords
I Dont Know Chords
Magical Spring Chords
Seagull Chords
Time Of Her Time Chords
Birdman Tabs
Chelsea Girl 1 Tabs
Leave Them All Behind Tabs
Like A Daydream Tabs
Drive Blind Ukulele


Song lyrics



↑ Back to top | Tablatures and chords are parodies/interpretations of the original songs. You may use it for private study, scholarship, research or language learning purposes only
© 2014 AZChords.com Contact us | Privacy policy | DMCA | Add/correct tabs | Request tabs | Top 50 tabs