» » »

Travelin Man Tabs (ver.1)

Artists:  A B C D E F G H I J K L M N O P Q R S T U V W X Y Z # 

Travelin Man Tabs (ver.1)

Ricky Nelson
Rating:
0/5 (0 votes)

Hard to play? Try these video lessons and learn fast.
                (Solo)
Travelin' Man (Solo)
By Ricky Nelson

15 August 2005


***********************************************************
/   =  Slide Up		~       =   Vibrato

\   =  Slide down	9b11====r  = Bend hold and release

PM  =  Palm Mute

h   =  Hammer on

***********************************************************

The Rhythm Guitar is percussive and muted throughout.  
The same Rhythm pattern is used for the chords 
for the remainder of the song.

I've also posted the power tab of the Solo and Rhythm Guitars

Enjoy

Brendan


 4/4

  Lead Guitar	
|--------------|-----------------------------|----------------------|
|-----------10-|-12-------10-10----10-----10-|----------------------|
|-------/11----|----------------------/11----|-11\9---7-----------7-|
|--------------|-----------------------------|----------9---7---9---|
|--------------|-----------------------------|----------------------|
|--------------|-----------------------------|----------------------|
|
| Rhythm Guitar	D			      Bm
|                 PM----------------------------------------------|
|--------------|-----------------------------|----------------------|
|--------------|--------------------------10-|----------------------|
|--------------|----------11-11--------11-11-|--------7-7-------7-7-|
|--------------|----------12-12--------12----|--------9-9-----7h9-9-|
|--------------|-----------------------------|----------------------|
|--------------|-10-10-10-------10-10--------|--7-7-7-----7-7-------|



  D                             Bm         ~~
|----------------------------|--------------------------10-|
|----------------------10-12-|-(12)-----12-12---10---12----|
|-----------7-----9/11-------|-----------------------------|
|--7--9--------7-------------|-----------------------------|
|----------------------------|-----------------------------|
|----------------------------|-----------------------------|
|
|  PM-------------------------------------------------------
|----------------------------|-----------------------------|
|-------------------------10-|-----------------------------|
|----------11-11-------11-11-|-----------7--7---------7--7-|
|----------12-12-------12----|-----------9--9-------7h9--9-|
|----------------------------|-----------------------------|
|-10-10-10-------10-10-------|---7--7-7-------7--7---------|


 D

|-/14-------12-10-----------------|
|--------------------10-----10----|
|-----------------------/11-------|
|---------------------------------|
|---------------------------------|
|---------------------------------|
|
|---------------------------|
|---------------------------------|
|---------------------------10----|
|-----------11-11--------11-11----|
|-----------12-12--------12-------|
|---------------------------------|
|--10-10-10-------10-10-----------|


  G			D                 A

|--------------------|--7-------------------------|
|--------------------|----10----------10----------|
|-\9-----7---------7-|----------9b11======r-7-9-7-|
|----------9---7-9---|----------------------------|
|--------------------|----------------------------|
|--------------------|----------------------------|
|
|  PM----------------------------------------------
|--------------------|----------------------------|
|------------------3-|--------------------------5-|
|--------4-4-----4-4-|----------11-----11-----6-6-|
|--------5-5-----5---|----------12-----12-----7---|
|--------------------|----------------------------|
|--3-3-3-----3-3-----|-10-10-10-----------5-5-----|

  D
       PM------------------|
|--------------------------------|
|--------------------------------|
|-(7)-----------------------7----|
|------7-----7--7--7--7--9-------|
|--------------------------------|
|--------------------------------|
|
|--------------------------|
|--------------------------------|
|--------------------------10----|
|-----------11-11-------11-11----|
|-----------12-12-------12-------|
|--------------------------------|
|-10--10-10-------10-10----------|

            
Hard to play? Try these video lessons and learn fast. | Correct




comments powered by Disqus
↑ Back to top | Tablatures and chords are parodies/interpretations of the original songs. You may use it for private study, scholarship, research or language learning purposes only