» » »

Rick Price, Only Reminds Me Of You Chords (ver.2)

Artists:  A B C D E F G H I J K L M N O P Q R S T U V W X Y Z # 

Only Reminds Me Of You Chords (ver.2)

Rick Price Tabs
 Rating:
4/5 (4 votes)
Only Reminds Me Of You lessons Tabs too difficult? Try these video lessons and learn fast
                The patented PaoloMartinez Fingerstyle Version 1.1
C             G
I see you, beside me
        G
It’s only a dream
Am                 G
A vision of what used to be
The laughter, the sorrow
Pictures in time
Fading to memory

C           G               F
How could I ever let you go
Is it too late to let you know

[chorus]
C            G
I try to run from your side
     F
But each place I hide
 Am       G              C
It only reminds me of you
          G
When I turn out all the lights
F
Even the night
Am      G            C
It only reminds me of you

I needed my freedom
This what I’ve thought
But I was a fool to believe
My heart lied while you cried
Rivers of tears
But I was too blind to see
Everything we’ve been through before
Now it means so much more

[repeat chorus]

Only you
C              G
So come back to me
               F
I’m down on my knees
               Am-G
Boy can’t you see
C            G           F
How could I ever let you go
              Am  G            C
Is it too late to let you know

[repeat chorus 2x] 
Here it is in tabs
-------------------------------------------------------------------------------
                             
-------------------------------------------------------------------------------

| s  slide 
| B  hammer-on
| p  pull-off
| ~  vibrato
| +  harmonic
| x  Mute note

Tuning:EADGBE
         Let Chord Ring
INTro      C               G                 F                          C
e|--------------------3--3-----------------3--3-----------------------------------|
B|---------------5s6~----------6-5-3----------------6-5------------------5--------|
G|--------0-~------------------------------3--3---------4---------5-5--7---7--5---|
D|--------0-~-----------------------------------------------------5-5--7---7---7s5|
A|--------3-~-----------------------------------------------------0-0--0----------|
E|-----------------------3--------------------------------------------------------|
            
Submit corrections

comments powered by Disqus
↑ Back to top | Rick Price Chords for Only Reminds Me Of You. Lyrics for acoustic guitar and electric guitar. Tablatures and chords are parodies/interpretations of the original songs. You may use it for private study, scholarship, research or language learning purposes only