» » »

Rick Astley, Never Gonna Give You Up Tabs (ver.1)

Artists:  A B C D E F G H I J K L M N O P Q R S T U V W X Y Z # 

Never Gonna Give You Up Tabs (ver.1)

Rick Astley Tabs
Rating:
2/5 (5 votes)
Never Gonna Give You Up lessons Tabs too difficult? Try these video lessons and learn fast
                -------------------------------------------------------------------------------
-------------------------------------------------------------------------------

Tuning:


Melody
E|---------------------------|-------------|
B|------------9--------------|-------------|
G|-6-8---8-10---11-10----8---|-------6---6-|
D|-----6--------------11---6-|-6-6-8---8---|
A|---------------------------|-------------|
E|---------------------------|-------------|

Harmony
E|--------------------------------|-------------------|
B|-------------9-13-11-9----------|-------------------|
G|-10-11----11-----------10-11----|----------10----10-|
D|-------10--------------------10-|-10-10-11----11----|
A|--------------------------------|-------------------|
E|--------------------------------|-------------------|

Rhtyhm
E|----------------------------|
B|----------------------------|
G|----------------------------|
D|-4-4-4--6-6-6--3-3-3--8-8-8-|
A|-4-4-4--6-6-6--3-3-3--8-8-8-|
E|-2-2-2--4-4-4--1-1-1--6-6-6-|

Verse 1

Melody
E|-----------------|-------------------|
B|-----------------|-------------9-9---|
G|---5-6-6-8-5-----|-----5-6---------8-|
D|-8-----------8-6-|-8-8-----8-6-------|
A|-----------------|-------------------|
E|-----------------|-------------------|

E|--------------------|------------------------|
B|--------------------|------------------------|
G|-----5-6---6-8------|-----5-6-----8-8-8-10-8-|
D|-8-8-----8-----8b-6-|-8-8-----8-6------------|
A|--------------------|------------------------|
E|--------------------|------------------------|

Rhythm
E|-----|-----|-----|-------|
B|-----|-----|-----|-------|
G|-----|-----|-----|-------|
D|-4---|-6---|-4---|-8--6--|
A|-4---|-6---|-4---|-8--6--|
E|-2---|-4---|-2---|-6--4--|

Prechorus

Melody
E|----------------------|----------------|
B|-----6----------------|----------------|
G|-6-8---6-8-8-8-10-8---|---5-6---8/10-8-|
D|--------------------6-|-8-----8--------|
A|----------------------|----------------|
E|----------------------|----------------|

Rhythm
E|-----|-----|-----|-------|
B|-----|-----|-----|-------|
G|-----|-----|-----|-------|
D|-4---|-6---|-4---|-6-///-|
A|-4---|-6---|-4---|-6-///-|
E|-2---|-4---|-2---|-4-///-|

Chorus

Melody
E|---------------|-------------------|------------------------|
B|---------6-6---|-------------------|------------------------|
G|-----6-------8-|-----6---8-8-6-5---|-----6---6-8--------8-6-|
D|-6-8---8-------|-6-8---8---------8-|-6-8---8-----8b-6-6-----|
A|---------------|-------------------|------------------------|
E|---------------|-------------------|------------------------|

E|---------------|-------------------|------------------------|
B|---------6-6---|---------9---------|------------------------|
G|-----6-------8-|-----6-----6-6-5---|-----6---6-8--------8-6-|
D|-6-8---8-------|-6-8---8---------8-|-6-8---8-----8b-6-6-----|
A|---------------|-------------------|------------------------|
E|---------------|-------------------|------------------------|

Rhtyhm
E|----------------------------|
B|----------------------------|
G|----------------------------|
D|-4-4-4--6-6-6--3-3-3--8-8-8-|
A|-4-4-4--6-6-6--3-3-3--8-8-8-|
E|-2-2-2--4-4-4--1-1-1--6-6-6-|

Verse 1

Melody
E|----------------|------------------------|
B|----------------|-------------9-9--------|
G|-6-6---6-8------|-----5-6---------8-8b-6-|
D|-----8-----8b-6-|-8-8-----8-6------------|
A|----------------|------------------------|
E|----------------|------------------------|

E|--------------------|-----------------------|
B|--------------------|-----------------------|
G|-----5-6---6-8------|-----5-6-----8-10-8b-8-|
D|-8-8-----8-----8b-6-|-8-8-----8-6-----------|
A|--------------------|-----------------------|
E|--------------------|-----------------------|

Rhythm
E|-----|-----|-----|-------|
B|-----|-----|-----|-------|
G|-----|-----|-----|-------|
D|-4---|-6---|-4---|-8--6--|
A|-4---|-6---|-4---|-8--6--|
E|-2---|-4---|-2---|-6--4--|






Bridge

Rhythm
E|-----------|
B|-----------|
G|-----------|
D|---6-6-6---|
A|---4-4-3---|
E|-----------|

Hey btw Check this video out! It's not me, but that will absolutely help you 
learning to play this song.
            
Submit corrections

comments powered by Disqus
↑ Back to top | Rick Astley Tabs for Never Gonna Give You Up. Lyrics for acoustic guitar and electric guitar. Tablatures and chords are parodies/interpretations of the original songs. You may use it for private study, scholarship, research or language learning purposes only