» » »

Rich Hardesty, All My Friends Are Stoners Tabs (ver.1)

Artists:  A B C D E F G H I J K L M N O P Q R S T U V W X Y Z # 

All My Friends Are Stoners Tabs (ver.1)

Rich Hardesty Tabs
 Rating:
4/5 (4 votes)
All My Friends Are Stoners lessons Tabs too difficult? Try these video lessons and learn fast
                GTR 1                                     
E|-------------------------------------------------------------------||
B|-------------------------------------------------------------------||
G|------------------------------------------0--2-0---0--------------.||
D|----------------0----------------------2---------2----------------.||
A|--2----2-----3-----------------------------------------------------||
E|-----3-------------------------------------------------------------||


GTR 2        G             Am            C             G              
E|-----------3-------------0-------------0-------------3-------------||
B|-----------3-------------1-------------1-------------3-------------||
G|-----------0-------------2-------------0-------------0------------.||
D|-----------0-------------2-------------2-------------0------------.||
A|-----------2-------------0-------------3-------------2-------------||
E|-----------3-------------0-------------0-------------3-------------||

All my friends are stoners
Lighting up all of the time
Everybody has a mason jar
Can you guess what i put in mine?

We all go to Jamaica
Once or twice a year
To smoke big blunts with the Rasta man
And drink ice cold Red Stripe Beer

All my friends are stoners
We sit around and get fried
We're asking the president to legalize it
So the whole wide world can get high

All of my friends are stoners
'til the day we die
When it comes to Marijuana, we're the kings
of the who, what, where, and why

All of my friends' parents are stoners
Lawyers, teachers, bankers, and brokers
They all have ADD
So they roll up great big jokers

All my friends are stoners
We sit around and get fried
We're asking the president to legalize it
So the whole wide world can get high

All of my friends in Hollywood
Are laughing up at the sky
My friends in Indiana
Are in the cornfields getting high

We put it in our tea, we put it in our cake
We roll it up nice so we can get baked
We just can't seem to get our fill
Wasting away in Marijuana-ville

All my friends are stoners
We sit around and get fried
We're asking the president to legalize it
So the whole wide world can get high

Yes, All my friends are stoners
We sit around and get fried
We're asking the president to legalize it
So the whole wide world can get high

All my friends are stoners
Lighting up all of the time
Everybody has a mason jar
Can you guess what i put in mine?
            
Submit corrections

comments powered by Disqus
↑ Back to top | Rich Hardesty Tabs for All My Friends Are Stoners. Lyrics for acoustic guitar and electric guitar. Tablatures and chords are parodies/interpretations of the original songs. You may use it for private study, scholarship, research or language learning purposes only