>
 >
Should've Known Better

Should've Known Better Bass Tabs

Richard Marx - Should've Known Better chords, tabs, tablatures, lyrics

Guitar lessons | Add/correct | Request | Top 50 tabs Artists:  A B C D E F G H I J K L M N O P Q R S T U V W X Y Z 0-9

Should've Known Better Bass Tabs – Richard Marx

CD, Sheet music, Poster

Do you like Should've Known Better? Share with your friends now
Bass Tabs
-----------------------------------------------------------------------------
                       
-----------------------------------------------------------------------------

Tuning: Standard

=============================================================================


Bass



     W                   W                   W                 
G||-------------------|-------------------|-------------------|
D||-------------------|-------------------|-------------------|
A||-------------------|-------------------|-------------------|
E||-------------------|-------------------|-------------------|
B||-------------------|-------------------|-------------------|


  H        E  E  E  E     W                   W                 
--------------7-----5--|-------------------|--1----------------|
-----------------3-----|-------------------|-------------------|
-----------------------|-------------------|-------------------|
-----------------------|-------------------|-------------------|
-----------------------|-------------------|-------------------|


  W                   W                   W                 
--3----------------|--L----------------|-------------------|
-------------------|-------------------|-------------------|
-------------------|-------------------|-------------------|
-------------------|-------------------|-------------------|
-------------------|-------------------|-------------------|


  E  E  E  E  Q    Q       Q    E  E  E  E  Q       E  E  E  E  Q    Q     
------------------------|------------------------|------------------------|
-------------------5----|------------------------|-------------------5----|
-----3--3-----3---------|--3-------3-----3--3----|-----3--3-----3---------|
------------------------|------------------------|------------------------|
------------------------|------------------------|------------------------|


  Q    E  E  E  E  Q       E  E  E  E  Q    Q       Q    E  E  E  E  Q     
------------------------|------------------------|------------------------|
------------------------|------------------------|------------------------|
------------------------|------------------------|------------------------|
--4-------4-----4--4----|-----4--4-----4----3----|--4-------4-----4--4----|
------------------------|------------------------|------------------------|


  E  E  E  E  E  E  E  E     Q    E  E  E  E  Q       E  E  E  E  Q    Q     
--------------------------|------------------------|------------------------|
--------------------------|------------------------|------------------------|
--------------------------|--1-------1-----1--1----|-----1--1-----1----1----|
-----4--4-----4--4--3--1--|------------------------|------------------------|
--------------------------|------------------------|------------------------|


  Q    E  E  E  E  Q       E  E  E  E  E  E  Q       Q    E  E  E  E  Q     
------------------------|-------------------------|------------------------|
------------------------|-------------------------|------------------------|
--1-------1-----1--1----|-----1--1-----1--1--1----|------------------------|
------------------------|-------------------------|--4-------4-----4--4----|
------------------------|-------------------------|------------------------|


  E  E  E  E  E  E  E  E     Q    E  E  E  E  Q       E  E  E  E  E  E  E  E   
--------------------------|------------------------|--------------------------|
--------------------------|------------------------|--------------------------|
--------------------------|------------------------|--------------------------|
-----4--4-----4--4--3-----|--4-------4-----4--4----|-----4--4-----4--4--3-----|
--------------------------|------------------------|--------------------------|


  Q    Q    E  E  E  E     E  E  Q    H           Q    Q    E  E  E  E   
------------------------|----------------------|------------------------|
------------------------|----------------------|------------------------|
--3------------3--3-----|--3--3----------------|--3------------3--3-----|
------------------------|----------------------|------------------------|
------------------------|----------------------|------------------------|


  E  E  Q    E  E  Q       Q    Q    E  E  Q       E  E  H        Q     
------------------------|-----------------------|----------------------|
------------------------|-----------------------|----------------------|
--3--3-------3--3-------|-----------------------|----------------------|
------------------------|--4------------4-------|--4--4----------------|
------------------------|-----------------------|----------------------|


  Q    Q    E  E  Q       E  E  Q    E  E  Q       Q    Q    E  E  Q     
-----------------------|------------------------|-----------------------|
-----------------------|------------------------|-----------------------|
-----------------------|------------------------|--1------------1-------|
--4------------4-------|--4--4-------4--4-------|-----------------------|
-----------------------|------------------------|-----------------------|


  E  E  H        Q       Q    Q    E  E  Q       E  E  Q    E  E  E  E   
----------------------|-----------------------|-------------------------|
----------------------|-----------------------|-------------------------|
--1--1----------------|-----------------------|-------------------------|
----------------------|--4------------4-------|--4--4-------4--4-----3--|
----------------------|-----------------------|-------------------------|


  Q    Q    E  E  Q       E  E  H        Q       Q    Q    E  E  Q     
-----------------------|----------------------|-----------------------|
-----------------------|----------------------|-----------------------|
--1------------1-------|--1--1----------------|-----------------------|
-----------------------|----------------------|--4------------4-------|
-----------------------|----------------------|-----------------------|


  E  E  Q    E  E  Q       Q    E  E  E  E  Q       E  E  Q    E  E  E  E   
------------------------|------------------------|-------------------------|
------------------------|------------------------|-------------------------|
------------------------|------------------------|-------------------------|
--4--4-------4--4-------|------------------------|-------------------1-----|
------------------------|--4-------4-----4--4----|-----4--4----4--4--------|


  Q    E  E  E  E  Q       E  E  E  E  E  E  Q       Q    E  E  E  E  Q     
------------------------|-------------------------|------------------------|
------------------------|-------------------------|------------------------|
----------1-----1--1----|-----1--1-----1--1-------|------------------------|
------------------------|--------------------3----|--4-------4-----4--4----|
------------------------|-------------------------|------------------------|


  E  E  E  E  E  E  E  E     Q    E  E  E  E  Q       E  E  Q    Q    Q     
--------------------------|------------------------|-----------------------|
--------------------------|------------------------|-----------------------|
--------------------------|--1-------1-----1--1----|-----1--1----3----3----|
-----4--4-----4--4--3-----|------------------------|-----------------------|
--------------------------|------------------------|-----------------------|


  Q    E  E  E  E  Q       E  E  Q    E  E  Q       Q    E  E  E  E  Q     
------------------------|------------------------|------------------------|
--1-------1-----1--1----|-----1--1----1--1--1----|------------------------|
------------------------|------------------------|--1-------1-----1--1----|
------------------------|------------------------|------------------------|
------------------------|------------------------|------------------------|


  E  E  Q    E  E  Q       Q    E  E  E  E  Q       E  E  E  E  E  E  Q     
------------------------|------------------------|-------------------------|
------------------------|------------------------|-------------------------|
-----1--1----1--1-------|------------------------|-------------------------|
-------------------3----|--4-------4-----4--4----|-----4--4-----4--4--3----|
------------------------|------------------------|-------------------------|


  Q    E  E  E  E  Q       E  E  Q    E  E  Q       Q    E  E  E  E  Q     
------------------------|------------------------|------------------------|
------------------------|------------------------|------------------------|
------------------------|------------------------|--3-------3-----3--3----|
--1-------1-----1--1----|-----1--1----1--1--1----|------------------------|
------------------------|------------------------|------------------------|


  E  E  Q    Q    Q       Q    E  E  E  E  Q       E  E  Q    Q    Q     
-----------------------|------------------------|-----------------------|
-----------------------|------------------------|-----------------------|
-----3--3----3---------|--3-------3-----3--3----|-----3--3----3---------|
------------------3----|------------------------|------------------3----|
-----------------------|------------------------|-----------------------|


  Q    E  E  E  E  Q       E  E  E  E  Q    Q       Q    E  E  E  E  Q     
------------------------|------------------------|------------------------|
------------------------|------------------------|------------------------|
------------------------|------------------------|------------------------|
--4-------4-----4--4----|-----4--4-----4----1----|--4-------4-----4--4----|
------------------------|------------------------|------------------------|


  E  E  E  E  Q    Q       Q    Q    E  E  E  E     E  E  Q    H         
------------------------|------------------------|----------------------|
------------------------|------------------------|----------------------|
------------------------|--3------------3--3-----|--3--3----------------|
-----4--4-----4---------|------------------------|----------------------|
------------------------|------------------------|----------------------|


  Q    Q    E  E  E  E     E  E  Q    E  E  Q       Q    Q    E  E  Q     
------------------------|------------------------|-----------------------|
------------------------|------------------------|-----------------------|
--3------------3--3-----|--3--3-------3--3-------|-----------------------|
------------------------|------------------------|--4------------4-------|
------------------------|------------------------|-----------------------|


  E  E  H        Q       Q    Q    E  E  Q       E  E  Q    E  E  Q     
----------------------|-----------------------|------------------------|
----------------------|-----------------------|------------------------|
----------------------|-----------------------|------------------------|
--4--4----------------|--4------------4-------|--4--4-------4--4-------|
----------------------|-----------------------|------------------------|


  Q    Q    E  E  Q       E  E  H        Q       Q    Q    E  E  Q     
-----------------------|----------------------|-----------------------|
-----------------------|----------------------|-----------------------|
--1------------1-------|--1--1----------------|-----------------------|
-----------------------|----------------------|--4------------4-------|
-----------------------|----------------------|-----------------------|


  E  E  Q    E  E  E  E     Q    Q    E  E  Q       E  E  H        Q     
-------------------------|-----------------------|----------------------|
-------------------------|-----------------------|----------------------|
-------------------------|--1------------1-------|--1--1----------------|
--4--4-------4--4-----3--|-----------------------|----------------------|
-------------------------|-----------------------|----------------------|


  Q    Q    E  E  Q       E  E  Q    E  E  Q       Q    E  E  E  E  Q     
-----------------------|------------------------|------------------------|
-----------------------|------------------------|------------------------|
-----------------------|------------------------|------------------------|
--4------------4-------|--4--4-------4--4-------|------------------------|
-----------------------|------------------------|--4-------4-----4--4----|


  E  E  Q    E  E  E  E     Q    E  E  E  E  Q       E  E  E  E  E  E  Q     
-------------------------|------------------------|-------------------------|
-------------------------|------------------------|-------------------------|
-------------------------|----------1-----1--1----|-----1--1-----1--1-------|
-------------------1-----|------------------------|--------------------3----|
-----4--4----4--4--------|------------------------|-------------------------|


  Q    E  E  E  E  Q       E  E  E  E  E  E  E  E     Q    E  E  E  E  Q     
------------------------|--------------------------|------------------------|
------------------------|--------------------------|------------------------|
------------------------|--------------------------|--1-------1-----1--1----|
--4-------4-----4--4----|-----4--4-----4--4--3-----|------------------------|
------------------------|--------------------------|------------------------|


  E  E  Q    Q    Q       Q    E  E  E  E  Q       E  E  Q    E  E  Q     
-----------------------|------------------------|------------------------|
-----------------------|--1-------1-----1--1----|-----1--1----1--1--1----|
-----1--1----3----3----|------------------------|------------------------|
-----------------------|------------------------|------------------------|
-----------------------|------------------------|------------------------|


  Q    E  E  E  E  Q       E  E  Q    E  E  Q       Q    E  E  E  E  Q     
------------------------|------------------------|------------------------|
------------------------|------------------------|------------------------|
--1-------1-----1--1----|-----1--1----1--1-------|------------------------|
------------------------|-------------------3----|--4-------4-----4--4----|
------------------------|------------------------|------------------------|


  E  E  E  E  E  E  Q       Q    E  E  E  E  Q       E  E  Q    E  E  Q     
-------------------------|------------------------|------------------------|
-------------------------|------------------------|------------------------|
-------------------------|------------------------|------------------------|
-----4--4-----4--4--3----|--1-------1-----1--1----|--1--1--1----1--1-------|
-------------------------|------------------------|------------------------|


  W                   W                   W                 
--1----------------|--L----------------|--1----------------|
-------------------|-------------------|-------------------|
-------------------|-------------------|-------------------|
-------------------|-------------------|-------------------|
-------------------|-------------------|-------------------|


  Q.     E  Q.     E     W                   Q.     E  H         
--L----------------3--|--1----------------|--L------------------|
---------1--3---------|-------------------|---------1--3--------|
----------------------|-------------------|---------------------|
----------------------|-------------------|---------------------|
----------------------|-------------------|---------------------|


  W                   Q.     E  Q.     E     W                 
--1----------------|--L----------------3--|--1----------------|
-------------------|---------1--3---------|-------------------|
-------------------|----------------------|-------------------|
-------------------|----------------------|-------------------|
-------------------|----------------------|-------------------|


  Q.     E  H           W                   W                                 
--L------------------|--1----------------|--L----------------|-------|-------|
---------1--3--------|-------------------|-------------------|-------|-------|
---------------------|-------------------|-------------------|-------|-------|
---------------------|-------------------|-------------------|-------|-------|
---------------------|-------------------|-------------------|-------|-------|


-------|-------|-------|-------|-------|-------|-------|-------|-------|-------|
-------|-------|-------|-------|-------|-------|-------|-------|-------|-------|
-------|-------|-------|-------|-------|-------|-------|-------|-------|-------|
-------|-------|-------|-------|-------|-------|-------|-------|-------|-------|
-------|-------|-------|-------|-------|-------|-------|-------|-------|-------|


                          Q    Q    E  E  E  E     E  E  Q    H         
-------|-------|-------|------------------------|----------------------|
-------|-------|-------|------------------------|----------------------|
-------|-------|-------|--3------------3--3-----|--3--3----------------|
-------|-------|-------|------------------------|----------------------|
-------|-------|-------|------------------------|----------------------|


  Q    Q    E  E  E  E     E  E  Q    E  E  Q       Q    Q    E  E  Q     
------------------------|------------------------|-----------------------|
------------------------|------------------------|-----------------------|
--3------------3--3-----|--3--3-------3--3-------|-----------------------|
------------------------|------------------------|--4------------4-------|
------------------------|------------------------|-----------------------|


  E  E  H        Q       Q    Q    E  E  Q       E  E  Q    E  E  Q     
----------------------|-----------------------|------------------------|
----------------------|-----------------------|------------------------|
----------------------|-----------------------|------------------------|
--4--4----------------|--4------------4-------|--4--4-------4--4-------|
----------------------|-----------------------|------------------------|


  Q    Q    E  E  Q       E  E  H        Q       Q    Q    E  E  Q     
-----------------------|----------------------|-----------------------|
-----------------------|----------------------|-----------------------|
--1------------1-------|--1--1----------------|-----------------------|
-----------------------|----------------------|--4------------4-------|
-----------------------|----------------------|-----------------------|


  E  E  Q    E  E  E  E     Q    Q    E  E  Q       E  E  H        Q     
-------------------------|-----------------------|----------------------|
-------------------------|-----------------------|----------------------|
-------------------------|--1------------1-------|--1--1----------------|
--4--4-------4--4-----3--|-----------------------|----------------------|
-------------------------|-----------------------|----------------------|


  Q    Q    E  E  Q       E  E  Q    E  E  Q       Q    E  E  E  E  Q     
-----------------------|------------------------|------------------------|
-----------------------|------------------------|------------------------|
-----------------------|------------------------|------------------------|
--4------------4-------|--4--4-------4--4-------|------------------------|
-----------------------|------------------------|--4-------4-----4--4----|


  E  E  Q    E  E  E  E     Q    E  E  E  E  Q       E  E  E  E  E  E  Q     
-------------------------|------------------------|-------------------------|
-------------------------|------------------------|-------------------------|
-------------------------|----------1-----1--1----|-----1--1-----1--1-------|
-------------------1-----|------------------------|--------------------3----|
-----4--4----4--4--------|------------------------|-------------------------|


  Q    E  E  E  E  Q       E  E  E  E  E  E  E  E     Q    E  E  E  E  Q     
------------------------|--------------------------|------------------------|
------------------------|--------------------------|------------------------|
------------------------|--------------------------|--1-------1-----1--1----|
--4-------4-----4--4----|-----4--4-----4--4--3-----|------------------------|
------------------------|--------------------------|------------------------|


  E  E  Q    Q    Q       Q    E  E  E  E  Q       E  E  Q    E  E  Q     
-----------------------|------------------------|------------------------|
-----------------------|--1-------1-----1--1----|-----1--1----1--1--1----|
-----1--1----3----3----|------------------------|------------------------|
-----------------------|------------------------|------------------------|
-----------------------|------------------------|------------------------|


  Q    E  E  E  E  Q       E  E  Q    E  E  Q       Q    E  E  E  E  Q     
------------------------|------------------------|------------------------|
------------------------|------------------------|------------------------|
--1-------1-----1--1----|-----1--1----1--1-------|------------------------|
------------------------|-------------------3----|--4-------4-----4--4----|
------------------------|------------------------|------------------------|


  E  E  E  E  E  E  Q       Q    E  E  E  E  Q       E  E  Q    E  E  Q     
-------------------------|------------------------|------------------------|
-------------------------|------------------------|------------------------|
-------------------------|------------------------|------------------------|
-----4--4-----4--4--3----|--1-------1-----1--1----|-----1--1-------1--1----|
-------------------------|------------------------|------------------------|


  Q    E  E  E  E  Q       E  E  Q    E  E  E  E     Q    E  E  E  E  Q     
------------------------|-------------------------|------------------------|
------------------------|-------------------------|------------------------|
------------------------|-------------------------|----------1-----1--1----|
------------------------|-------------------1-----|------------------------|
--4-------4-----4--4----|-----4--4----4--4--------|------------------------|


  E  E  E  E  E  E  Q       Q    E  E  E  E  Q       E  E  E  E  E  E  E  E   
-------------------------|------------------------|--------------------------|
-------------------------|------------------------|--------------------------|
-----1--1-----1--1-------|------------------------|--------------------------|
--------------------3----|--4-------4-----4--4----|-----4--4-----4--4--3-----|
-------------------------|------------------------|--------------------------|


  Q    E  E  E  E  Q       E  E  Q    Q    Q       Q    E  E  E  E  Q     
------------------------|-----------------------|------------------------|
------------------------|-----------------------|--1-------1-----1--1----|
--1-------1-----1--1----|-----1--1----3----3----|------------------------|
------------------------|-----------------------|------------------------|
------------------------|-----------------------|------------------------|


  E  E  Q    E  E  Q       Q    E  E  E  E  Q       E  E  Q    E  E  Q     
------------------------|------------------------|------------------------|
-----1--1----1--1--1----|------------------------|------------------------|
------------------------|--1-------1-----1--1----|-----1--1----1--1-------|
------------------------|------------------------|-------------------3----|
------------------------|------------------------|------------------------|


  Q    E  E  E  E  Q       E  E  E  E  E  E  Q      
------------------------|-------------------------||
------------------------|-------------------------||
------------------------|-------------------------||
--4-------4-----4--4----|-----4--4-----4--4--3----||
------------------------|-------------------------||




Duration Legend
---------------
W - whole
H - half
Q - quarter
E - 8th
S - 16th
T - 32nd
X - 64th
. - note dotted
|-n-|  - n-tuplets


Tablature Legend
----------------
L - tied note
x - dead note
g - grace note
(n) - ghost note
> - accentuded note
NH - natural harmonic
AH - artificial harmonic
TH - tapped harmonic
SH - semi harmonic
PH - pitch harmonic
h - hammer on
p - pull off
b - bend
br - bendRelease
pb - preBend
pbr - preBendRelease
brb - bendReleaseBend
\n/ - tremolo bar dip
\n - tremolo bar dive
-/n - tremolo bar Release up
/n\ - tremolo bar inverted dip
/n - tremolo bar return
-\n - tremolo bar Release down
S - shift slide
s - legato slide
/ -  slide into from below or out of upwards
\ -  slide into from above or out of downwards
~ - vibrato
W - wide vibrato
tr - trill
TP - tremolo picking
T - tapping
S - slap
P - pop
< - fade in
^ - brush up
v - brush down





Comments


Popular Richard Marx tabs & chords
Angelia Chords
Keep Coming Back Chords
Now And Forever Chords
Right Here Waiting 1 Tabs
Waiting For You Tabs
Always On Your Mind Ukulele
Angelia Ukulele
Cant Help Falling In Love Ukulele
Take This Heart Ukulele
When Youre Gone Ukulele


Song lyrics



↑ Back to top | Tablatures and chords are parodies/interpretations of the original songs. You may use it for private study, scholarship, research or language learning purposes only
© 2014 AZChords.com Contact us | Privacy policy | DMCA | Add/correct tabs | Request tabs | Top 50 tabs