>
 >
Right Here Waiting 9

Right Here Waiting 9 Guitar Tabs

Richard Marx - Right Here Waiting 9 chords, tabs, tablatures, lyrics

Guitar lessons | Add/correct | Request | Top 50 tabs Artists:  A B C D E F G H I J K L M N O P Q R S T U V W X Y Z 0-9

Right Here Waiting 9 Guitar Tabs – Richard Marx

CD, Sheet music, Poster

Do you like Right Here Waiting 9? Share with your friends now
ChordsChords v2Chords v3TabsTabs v2Tabs v3Tabs v4Tabs v5Tabs v6Tabs v7Tabs v8Tabs v9Ukulele
Hey guys, this is (almost) the same tab as Ulli Boegershausen, so I'm confident enough 
to say this is 95% accurate.
Oh, everywhere you see D it means you go from low E to high e, so it's a downstroke.

I hope you will enjoy this tab as much as I do!

INTRO
    D   D   D   D   D      D
e|------3-------3---8--7---5--------|
B|------3-------3---5------5--8-----|
G|--2---0---2---0---5------5--------|
D|--2---2---2-----------------------|
A|------3---3---2---8------5-----0~-|
E|--1-------1-----------------------|

e|--------3-3-1-0--------------0-1-0------------0-----------------|
B|----------------3--------3-3------------1-1-3-----3---1---0-----|
G|------0----------------0------------------0---------0-------2-0-|
D|----2----------------0----------------2-------------------------|
A|--3----------------2----------------0---------------------------|
E|------------------------------------------------1-------3-------|

e|--------3-3-1-0-------------0-1-0---------0-0h1---0-------------|
B|----------------3-------3-3-----------1-3-------------3---1-0-1-|
G|------0---------------0-----------------0-----------0-----------|
D|----2---------------0---------------2---------------------------|
A|--3---------------2---------------0-----------------------------|
E|------------------------------------------------1-------3-------|

e|-------------------------|
B|--------0-1----------0-1-|
G|------2------------2-----|
D|----2------------2-------|
A|--0------------0---------|
E|-------------0-----------|

VERSE 1                                                       D
e|-------------------|----0-----0--------|-----------------|----------------------|
B|------------1-3-3--|------------3-1-3--|----1---------0--|--1----3-0------------|
G|------0---0--------|-------------------|------2-----2----|--2----------2-0------|
D|----2--------------|------0------------|--0-------0------|-----0-----0----------|
A|--3-----3----------|-------------------|--------0--------|----------------------|
E|-------------------|--1-----1----------|-----------------|--3-------------------|
                                                              D
e|-------------------|----0-----0--------|-----------------|----------------------|
B|------------1-3-3--|------------3-1-3--|----1---------0--|--1----3-0-----1-1----|
G|------0---0--------|-------------------|------2-----2----|--2------0-------0----|
D|----2--------------|------0------------|--0-------0------|-----0-----0----------|
A|--3-----3----------|-------------------|--------0--------|----------------------|
E|-------------------|--1-----1----------|-----------------|--3-------------------|

INTERLUDE
e|--------------0-1--|------0----------------|---------------0-1--|------0----------------|
B|----------1-3------|--------1---3----------|----------1-3-------|--------1---1----------|
G|------0---0--------|----0------------------|------0---0---------|--------------------0--|
D|----2--------------|------------------0----|----2---------------|----0-------------0----|
A|--0-----0----------|----------------2---2--|--0-----0-----------|--------------0-2------|
E|-------------------|--1-------0---3--------|--------------------|--3-------1------------|

CHORUS
e|--------3-3-1-0----|-------------0-1-0--|------------0--|--------------------|
B|--------1-1-1-1-3--|---------3-3--------|------1-1-3----|----3---1----0------|
G|------0------------|------0--0-0--------|--------0------|------0--------2-0--|
D|----2--------------|----0---------------|----2----------|--------------------|
A|--3----------------|--2-----------------|--0------------|--------------------|
E|-------------------|--------------------|---------------|--1--------3--------|

e|--------3-3-1-0----|-------------0-1-0--|----------0-0-1--|----0---------------|
B|--------1-1-1-1-3--|---------3-3--------|------1-3--------|--------3----1-0-1--|
G|------0------------|------0--0-0--------|--------0--------|------0-------------|
D|----2--------------|----0---------------|----2------------|--------------------|
A|--3----------------|--------------------|--0--------------|--------------------|
E|-------------------|--3-----------------|-----------------|--1--------3--------|

e|--------------|-----------------|
B|--------0--1--|----------0-1----|
G|------2-------|--------2--------|
D|----2---------|------2----------|
A|--0-----------|----0---------0--|
E|--------------|--0--------------|

VERSE 2                                                       D
e|-------------------|----0-----0--------|-----------------|----------------------|
B|------------1-3-3--|------------3-1-3--|----1---------0--|--1----3-0------------|
G|------0---0--------|-------------------|------2-----2----|--2----------2-0------|
D|----2--------------|------0------------|--0-------0------|-----0-----0----------|
A|--3-----3----------|-------------------|--------0--------|----------------------|
E|-------------------|--1-----1----------|-----------------|--3-------------------|
                                                              D
e|-------------------|----0-----1-0------|-----------------|--------------------|
B|------------1-3-3--|--------------1-3--|----1---------0--|--1----3-0-----1-1--|
G|------0---0--------|-------------------|------2-----2----|--2------0-------0--|
D|----2--------------|------0------------|--0-------2------|-----0-------0------|
A|--3-----3----------|-------------------|--------0--------|--3-----------------|
E|-------------------|--1-----1----------|-----------------|-----------3--------|

INTERLUDE
e|--------------0-1--|------0----------------|--------------0-1--|------0----------------|
B|----------1-3------|--------1---3----------|----------1-3------|--------1---1----------|
G|------0---0--------|----0------------------|------0---0--------|--------------------0--|
D|----2--------------|------------------0----|----2--------------|----0-------------0----|
A|--0-----0----------|----------------2---2--|--0-----0----------|--------------0-2------|
E|-------------------|--1-------0---3--------|-------------------|--3-------1------------|

CHORUS
e|--------3-3-1-0----|-------------0-1-0--|------------0--|--------------------|
B|--------1-1-1-1-3--|---------3-3--------|------1-1-3----|----3---1----0------|
G|------0------------|------0--0-0--------|--------0------|------0--------2-0--|
D|----2--------------|----0---------------|----2----------|--------------------|
A|--3----------------|--2-----------------|--0------------|--------------------|
E|-------------------|--------------------|---------------|--1--------3--------|

e|--------3-3-1-0----|-------------0-1-0--|----------0-0-1--|----0---------------|
B|--------1-1-1-1-3--|---------3-3--------|------1-3--------|--------3----1-0-1--|
G|------0------------|------0--0-0--------|--------0--------|------0-------------|
D|----2--------------|----0---------------|----2------------|--------------------|
A|--3----------------|--------------------|--0--------------|--------------------|
E|-------------------|--3-----------------|-----------------|--1--------1---3----|

BREAK                D
e|----------------|--0--1--0-----------|----------------------|-------------------|
B|-----------1-3--|--0-----------------|-------------1-1-3-1--|-------------------|
G|---------0-0----|--0------------0-2--|---------2---2-2---2--|-------------------|
D|--3---3---------|--2----------2------|------3---------------|------3-------2----|
A|--3---3---------|--3--------3--------|----3-----------------|----3---3---3---3--|
E|--1---1----3----|--------------------|--1--------1----------|--1-------0--------|

e|-----------------|--0----1-0----------|--------------3-3--|----------------------|
B|------1-----1-3--|--0-----------------|------1-1-----1-1--|----------1-----0-----|
G|----2-----0------|--0--0---------0-2--|------0-0-----2-2--|------0---2-----0-----|
D|--0--------------|--2----------2------|----0--------------|----0--------0-----0--|
A|--------0--------|--3--------3--------|------------0------|----------------------|
E|------------3----|--------------------|--1-------1--------|--3-----3-------------|

CHORUS
e|--------3-3-1-0----|-------------0-1-0--|------------0--|--------------------|
B|--------1-1-1-1-3--|---------3-3--------|------1-1-3----|----3---1----0------|
G|------0------------|------0--0-0--------|--------0------|------0--------2-0--|
D|----2--------------|----0---------------|----2----------|--------------------|
A|--3----------------|--2-----------------|--0------------|--------------------|
E|-------------------|--------------------|---------------|--1--------3--------|

e|--------3-3-1-0----|-------------0-1-0--|----------0-0-1--|----0---------------|
B|--------1-1-1-1-3--|---------3-3--------|------1-3--------|--------3----1-0-1--|
G|------0------------|------0--0-0--------|--------0--------|------0-------------|
D|----2--------------|----0---------------|----2------------|--------------------|
A|--3----------------|--------------------|--0--------------|--------------------|
E|-------------------|--3-----------------|-----------------|--3--------1---3----|

INTERLUDE
e|--------------0-1--|------0----------------|--------------0-1--|------0----------------|
B|----------1-3------|--------1---3----------|----------1-3------|--------1---1----------|
G|------0---0--------|----0------------------|------0---0--------|--------------------0--|
D|----2--------------|------------------0----|----2--------------|----0-------------0----|
A|--0-----0----------|----------------2---2--|--0-----0----------|--------------0-2------|
E|-------------------|--1-------0---3--------|-------------------|--3-------1------------|

CHORUS
e|--------3-3-1-0----|-------------0-1-0--|------------0--|--------------------|
B|--------1-1-1-1-3--|---------3-3--------|------1-1-3----|----3---1----0------|
G|------0------------|------0--0-0--------|--------0------|------0--------2-0--|
D|----2--------------|----0---------------|----2----------|--------------------|
A|--3----------------|--2-----------------|--0------------|--------------------|
E|-------------------|--------------------|---------------|--1--------3--------|

e|--------3-3-1-0----|-------------0-1-0--|----------0-0-1--|----0---------------|
B|--------1-1-1-1-3--|---------3-3--------|------1-3--------|--------3----1-0-1--|
G|------0------------|------0--0-0--------|--------0--------|------0-------------|
D|----2--------------|----0---------------|----2------------|--------------------|
A|--3----------------|--------------------|--0--------------|--------------------|
E|-------------------|--3-----------------|-----------------|--3--------1---3----|





Comments


Popular Richard Marx tabs & chords
At The Beginning Chords
Chains Around My Heart Chords
Colonics Commercial Chords
Endless Summer Nights Chords
When You Loved Me 1 Chords
Now And Foreverad Lib Tabs
Right Here Waiting 4 Tabs
Always On Your Mind Ukulele
Keep Coming Back Ukulele
Right Here Waiting Ukulele


Song lyrics



↑ Back to top | Tablatures and chords are parodies/interpretations of the original songs. You may use it for private study, scholarship, research or language learning purposes only
© 2014 AZChords.com Contact us | Privacy policy | DMCA | Add/correct tabs | Request tabs | Top 50 tabs