» » »

Right Here Waiting Tabs (ver.10)

Artists:  A B C D E F G H I J K L M N O P Q R S T U V W X Y Z # 

Right Here Waiting Tabs (ver.10)

Richard Marx
Rating:
0/5 (0 votes)

Hard to play? Try these video lessons and learn fast.
                Right Here Waitng
By Richard Marx / arrange by Jelvin Ray Agan
Make sure pluck it fast
Hope you like it guys?
^_^
Intro

         F,C9		        E
E -----I—3----I	   I--------9-7- I-------7---I
B ---- I—3----I	   I-----7-------I-----7---9-I
G -3---I------I	   I---7---------I---7-------I
D -2---I---2--I 2x I-------------I-----------I
A -3---I---3--I	   I-------------I-----------I
E -1---I------I	   I-7-----------I-7---------I
   	C,G,Am,F
E ------3-3-1-0------------0-0h1-0--I---------------------------I 
B ----1----------3-----3-3----------I-----1--3--5-3--1-0--------I
G --0-----------------0-------------I---2--2--2--0--0-0--0h2-0- I
D -------------------0--------------I--2------------------------I
A -3--------------------------------I-0-------------------------I
E ------------------3---------------I---------------------------I
	C,G,Am,F
E ------3-3-1-0-----------0-0h1-0-I---------------------I
B ----1----------3-----3-3--------I-----1-3-5-3-1-1-0-1-I
G —-0-----------------0-----------I----2-2-2-0-0-0------I
D -------------------0------------I—-2------------------I
A -3------------------------------I-0-------------------I
E ------------------3-------------I---------------------I
       Am
E -----------I
B -----0-1---I
G ---2----2--I 2x
D --2------2-I
A -0---------I
E -----------I

Verse:
C,F,Am,G

E --------------------1---------------------------------I
B ---1---0h1-3-3----3----3-1-3-1-----------1-3-0-0------I
G --0-0------------2—2-----------2—2---2------0-0-0h2-0-I
D ------------------------------------------------------I
A -3------------------------------0---------------------I
E ---------------1-------------------3------------------I

E --------------------1----------------------------------I
B ---1---0h1-3-3----3----3-1-3-1-----------1-3-0—0-0h1-1-I
G --0-0------------2-2------------2—2—-2------0-0--------I
D -------------------------------------------------------I
A -3-------------------------------0---------------------I
E ---------------1-------------------3-------------------I


Refrain
Am,F

E---------0-1---------------------I
B-----1—3-0-1---1—3-1—3-----------I
G----2—2—-0-1-1------0---0--------I
D---2-----------------------------I
A-0-------------------------0h1-0-I
E---------------------------------I


E---------0-1---------------------I
B-----1—3-0-1---1—3-1—3-----------I
G----2—2—-0-1-1------0---0--------I
D---2-----------------------------I
A-0-------------------------------I
E---------------------------------I
Chorus
C,G,Am,F
E ------3-3-1-0------------0-0h1-0--I---------------------------I 
B ----1----------3-----3-3----------I-----1--3--5-3--1-0--------I
G --0-----------------0-------------I---2--2--2--0--0-0--0h2-0- I
D -------------------0--------------I--2------------------------I
A -3--------------------------------I-0-------------------------I
E ------------------3---------------I---------------------------I
	C,G,Am,F
E ------3-3-1-0-----------0-0h1-0-I---------------------I
B ----1----------3-----3-3--------I-----1-3-5-3-1-1-0-1-I
G —-0-----------------0-----------I----2-2-2-0-0-0------I
D -------------------0------------I—-2------------------I
A -3------------------------------I-0-------------------I
E ------------------3-------------I---------------------I
       Am
E -----------I
B -----0-1---I
G ---2----2--I 2x
D --2------2-I
A -0---------I
E -----------I

Verse:
Chorus:

Bridge
E --------I-------0-----1----------I---------------------------I
B -1----1-I-------0----------0—1---I--1---0h1-1----------------I
G -2----2-I-------0--------0-----2-I-2-2---------2-------------I
D -2----2-I-----1—3----------------I----------------3---2-0--0-I
A ----0---I-1—3---3---3------------I------------------3-----2--I
E --------I------------------------I---------------------------I

E --------I-------0-----1------------------3-3-------0h1--------I
B -1----1-I-------0----------0—1------1-------------------------I
G -2----2-I-------0--------0-----2--2---2------0-----------0--0-I
D -2----2-I-----1—3--------------------------------------2------I
A ----0---I-1—3---3---3--------------------------------------2--I
E --------I-----------------------------------------------------I
chorus:
refrain
chorus


Lyrics:

Oceans apart, day after day
And I slowly go insane
I hear your voice on the line
But it doesn't stop the pain

If I see you next to never
But how can we say forever

Wherever you go, whatever you do
I will be right here waiting for you
Whatever it takes or how my heart breaks
I will be right here waiting for you

I took for granted, all the times
That I thought would last somehow
I hear the laughter, I taste the tears
But I can't get near you now

Oh, can't you see it, baby
You've got me goin' crazy

Wherever you go, whatever you do
I will be right here waiting for you
Whatever it takes or how my heart breaks
I will be right here waiting for you

I wonder how we can survive
This romance
But in the end if I'm with you
I'll take the chance

Oh, can't you see it, baby
You've got me goin' crazy

Wherever you go, whatever you do
I will be right here waiting for you
Whatever it takes or how my heart breaks
I will be right here waiting for you

Waiting for you
            
Hard to play? Try these video lessons and learn fast. | Correct




comments powered by Disqus
↑ Back to top | Tablatures and chords are parodies/interpretations of the original songs. You may use it for private study, scholarship, research or language learning purposes only