>
 >
I Can't Help Falling In Love

I Can't Help Falling In Love Guitar Tabs

Richard Marx - I Can't Help Falling In Love chords, tabs, tablatures, lyrics

Guitar lessons | Add/correct | Request | Top 50 tabs Artists:  A B C D E F G H I J K L M N O P Q R S T U V W X Y Z 0-9

I Can't Help Falling In Love Guitar Tabs – Richard Marx

CD, Sheet music, Poster

Do you like I Can't Help Falling In Love? Share with your friends now
Tabs

Tuning:EADGBe

 Intro:
  Guitar 1:
e|-------------------|------0-------2-----0-------0------3-----2-----3------------|
B|-------------------|--1-----1-3---3-0-----0-1----1-3---3-3---3-3-----3--0h1-3/1-|
G|-------------------|----0-------2-2---0-------2------0-----2-2---0--------------|
D|-------------------|----------0--------------------------0--------------0h2-4/2-|
A|-------------------|--3-------------2-------0-----------------------------------|
E|-------------------|-------------------------------3-----------3----------------|

  Guitar 2:
e|---------------------------------------------------------------------------|
B|-------12/14\12-11------------------11-----13-15-16-15---13----11----------|
G|-10/12-------------10-12------14-------------------------------------------|
D|---------------------------------------------------------------------------|
A|---------------------------------------------------------------------------|
E|---------------------------------------------------------------------------|

 Verse 1:Guitar 1
e|------3--------2------------0----------0--------3-------------0-------|
B|--------0--------2------0-----0----------1--------0-------3-----3-----|
G|----0--------2--------0---0-----0----2--------0---------2---2-----2---|
D|----------------------------------------------------------------------|
A|--------------------2--------------0----------------------------------|
E|--3--------2--------------------------------3---------2---------------|
   wise     men      say       only fools    rush      in

e|------0--------2--------0--------0--------3------3------3-------------|
B|--------1--------3--------0--------1------3------3------3-3--0h1--3/1-|
G|----0--------2--------0--------2--------0------2------0---------------|
D|-----------0---------------------------------0---------------0h2--4/2-|
A|--3-----------------2--------0----------------------------------------|
E|--------------------------------------3-------------3-----------------|
  But i   i cant   help      falling in love  with   you

 Verse 2:
e|------3--------2------------0----------0--------3-------------0-------|
B|--------0--------2------0-----0----------1--------0-------3-----3-----|
G|----0--------2--------0---0-----0----2--------0---------2---2-----2---|
D|----------------------------------------------------------------------|
A|--------------------2--------------0----------------------------------|
E|--3--------2--------------------------------3---------2---------------|
   Shall    i        stay      would it be    a        sin

e|------0--------2--------0--------0--------3------3------3-------------|
B|--------1--------3--------0--------1------3------3--------3--1/3-1----|
G|----0--------2--------0--------2--------0------2------0------------0--|
D|-----------0---------------------------------0-----------------------2|
A|--3-----------------2--------0----------------------------------------|
E|--------------------------------------3-------------3-----------------|
   If i   i can't   help     falling  in love  with  you

 Chorus:             
e|------0--------2----|------0--------2----|------0--------2------|
B|--------1--------3--|--------1--------3--|--------1--------3----|
G|----0--------2------|----0--------2------|----0--------2--------|
D|-----------0--------|-----------0--------|-----------0----------|
A|--3-----------------|--3-----------------|--3-------------------|
E|--------------------|--------------------|----------------------|
    Like a river flows   surely to the sea  darling so it goes

e|------0--------0----|----------2---------|
B|--------1--------1--|------3-----3-------|
G|----2--------2------|----2---2-----2-----|
D|--------------------|--0-----------------|
A|--0--------0--------|--------------------|
E|--------------------|--------------------|
    somethings  are meant to be

 Verse 3:
e|------3--------2------------0----------0--------3-------------0-------|
B|--------0--------2------0-----0----------1--------0-------3-----3-----|
G|----0--------2--------0---0-----0----2--------0---------2---2-----2---|
D|----------------------------------------------------------------------|
A|--------------------2--------------0----------------------------------|
E|--3--------2--------------------------------3---------2---------------|
   Take     my       hand       take my whole life     too

e|------0--------2--------0--------0--------3------3------3-------------|
B|--------1--------3--------0--------1------3------3------3-3--1/3------|
G|----0--------2--------0--------2--------0------2------0---------------|
D|-----------0---------------------------------0---------------2/4------|
A|--3-----------------2--------0----------------------------------------|
E|--------------------------------------3-------------3-----------------|
   For i   i cant   help      falling in love  with  you

 Solo:
  Guitar 1:Play verse 2
  Guitar 2:
e|----------------------------------------------------------------------|
B|------------------10-10/12-12~--12-13-10-12-13--12-12h13-12-----------|
G|--12~-12h14-11-12-------------------------------------------12-14~----|
D|----------------------------------------------------------------------|
A|----------------------------------------------------------------------|
E|----------------------------------------------------------------------|

e|-------------------------------------------------------------------------|
B|------------------------12-12-14-12-14-16---13-15-16-15--13-11-1/3-1-----|
G|--11h12p11-9-------11-9----------------------------------------------0---|
D|-------------11-9------------------------------------------------------2-|
A|-------------------------------------------------------------------------|
E|-------------------------------------------------------------------------|

 Chorus:
e|------0--------2----|------0--------2----|------0--------2------|
B|--------1--------3--|--------1--------3--|--------1--------3----|
G|----0--------2------|----0--------2------|----0--------2--------|
D|-----------0--------|-----------0--------|-----------0----------|
A|--3-----------------|--3-----------------|--3-------------------|
E|--------------------|--------------------|----------------------|
    Like a river flows   surely to the sea  darling so it goes

e|------0--------0----|----------2---------|
B|--------1--------1--|------3-----3-------|
G|----2--------2------|----2---2-----2-----|
D|--------------------|--0-----------------|
A|--0--------0--------|--------------------|
E|--------------------|--------------------|
    somethings  are meant to be

 Verse 4:
e|------3--------2------------0----------0--------3-------------0-------|
B|--------0--------2------0-----0----------1--------0-------3-----3-----|
G|----0--------2--------0---0-----0----2--------0---------2---2-----2---|
D|----------------------------------------------------------------------|
A|--------------------2--------------0----------------------------------|
E|--3--------2--------------------------------3---------2---------------|
   Take     my       hand       take my whole life     too
 
 Guitar 2:
e|----------------------------17-15-------------------------------------|
B|----------------------------------------------------------------------|
G|----------------------------------------------------------------------|
D|----------------------------------------------------------------------|
A|----------------------------------------------------------------------|
E|----------------------------------------------------------------------|

e|------0--------2--------0--------0--------3------3------3-------------|
B|------1--------3--------0--------1------3--------3------3-------------|
G|----0--------2--------0--------2--------0------2------0---------------|
D|-----------0---------------------------------0------------------------|
A|--3-----------------2--------0----------------------------------------|
E|--------------------------------------3-------------3-----------------|
   For i  i cant   help     falling in love   with   you
  
  Guitar 2:
e|----------------------------------------------------------13/15--15-13--|
B|------------------------------------------------------------------------|
G|------------------------------------------------------------------------|
D|------------------------------------------------------------------------|
A|------------------------------------------------------------------------|
E|------------------------------------------------------------------------|
 
 Outro:
e|------0--------2--------0--------0--------3------3--------2-------3----3--|
B|--------1--------3--------0--------1--------0------0--------3-------0---0-|
G|----0--------2--------0--------2--------0-------0-------2-------0-----0---|
D|-----------0------------------------------------------0-------------------|
A|--3-----------------2--------0--------------------------------------------|
E|--------------------------------------3-------3---------------3------3----|
    No i   i cant   help     falling in love           with    you

 Guitar 2:
e|---------------------------------------------13-15-----------------------|
B|------------------------------13-15-16-15--------------------------------|
G|-------------------------------------------------------------------------|
D|-------------------------------------------------------------------------|
A|-------------------------------------------------------------------------|
E|-------------------------------------------------------------------------|

e|--13-15--13-12------------------|
B|---------------15--15--15/17----|
G|--------------------------------|
D|--------------------------------|
A|--------------------------------|
E|--------------------------------|
 
  Guitar 1:
e|------2--------2--------3------------3------|
B|--------3--------3--------0--0h1/3---3------|
G|----2--------2--------0--------------0------|
D|--0--------0-----------------0h2/4---0------|
A|-------------------------------------2------|
E|--------------------3----------------3------|

              wehehehe.....Enjoy......





Comments


Popular Richard Marx tabs & chords
Should've Known Better Bass Tabs
Always On Your Mind Chords
Dont Mean Nothing Chords
Hazard 1 Chords
Nothin' Left To Say Chords
Now And Forever 2 Chords
Now And Forever 3 Chords
Right Here Waiting 2 Chords
Heaven Knows Tabs
Right Here Waiting 1 Tabs


Song lyrics



↑ Back to top | Tablatures and chords are parodies/interpretations of the original songs. You may use it for private study, scholarship, research or language learning purposes only
© 2014 AZChords.com Contact us | Privacy policy | DMCA | Add/correct tabs | Request tabs | Top 50 tabs