» » »

Richard Marx, Heaven Knows Tabs (ver.1)

Artists:  A B C D E F G H I J K L M N O P Q R S T U V W X Y Z # 

Heaven Knows Tabs (ver.1)

Richard Marx Tabs
 Rating:
4/5 (4 votes)
Heaven Knows lessons Tabs too difficult? Try these video lessons and learn fast
                Intro:

E----------3--------0---1---0-----0-----------3-------------3------]
B-----5------3--------1-------1----------5------3-------3---3------]
G-------5--------5--------------0---0------5----------5-----5------]
D-------------------3-------------------------------5-------5------]
A-----5--------3--------0----------------5--------3---------3------]
E-----------------------------------------------------------3------]

E---------------------------0------0-------------------0-------1----0--]
B---------------------------3------1----1---1h3---1------1h0---0-------]
G---3/5---5---4-----4----0----0h2-----2--------------2-----------0-----]
D----------------7-----------------3-----------------------------------]
A---------------------3-----3-----------------0------------------------]
E--------------------------------------------------------------3-------]

E---------------0-----0----5--------0------------------------1---------]
B---3-------3---3---3-----------1-----1---0---1---------1----1---------]
G-----------------0-----0---------2--------------2--2-----2--2---------]
D---------1-----------------------------------------3--------3---------]
A-------2-------2-------------0---------------------3--------0---------]
E-----3-----------------------------------3---------1--------3---------]

E----------------------0------0------------------0-------1----0-----------]
B--1--1--0-----0-------3------1----1----1h3--------------0-------3--------]
G----------2-----0--------0h2----2---2--------2-----2h0-----0-------------]
D-----------------------------3----------------------------------------1--]
A------------3-----3---3------------------0--------------------------2----]
E--------------------------------------------------------3---------3------]

E-------0------0----5---------0-----------------------------1-------------]
B---3---3----3------------1------1--0-----1h0-----------------1----0---1--]
G----------0-----0----------2----------0-------2--------2-------2---------]
D-----------------------------------------------------3-------------------]
A-------2--------------0----------------------------3---------------------]
E-----------------------------------3-------------1-----------------------]

E------------------0---------------------------0-----0---1---0-----------]
B---1---0h1---1-------0---1---1---0h1---1h3----------0---------3---1-----]
G---2---------2----2-------------------------0---0-------------------2---]
D----------------------------------------------------3-----------3-------]
A---0---------0----------------------------------------------------------]
E-----------------------------3-----------3------------------------------]

CHORUS:

E---3-------3---------1----3--3--3--3----1--0h1--------0----------------]
B---------4---------3------1---------------------3-------3---1---0h1----]
G-------5---------3--------0-------------------------2---------------0--]
D-----6---------3----------2--------------------------------------------]
A-------------1------------3--------------------------------------------]
E--------------------------0----------0------------1-------3------------]

E---0----3/8---7---3-----------------------3---3---3--3---1---0h1-----0-]
B---1--------------------0---1---0---------1----------------------3-----]
G-----0----------------2-----------2--0----0------------------------2---]
D------------------------------------------2----------------------------]
A---3--------------------------------------3----------------------------]
E------------3-------1-------3-------------0------------0------------1--]

E-------------------0-----3/8----7---3-------------------------------]
B---3-----1--0h1----1---------------------0---1--0-------------------]
G----------------0-----0----------------2-----0-----2--0-------------]
D--------------------------------------------------------------------]
A-------------------3------------------------------------------------]
E------0----------------------0--------1------3----------------------]

E----0------------------3-------0----------3----------------------1--]
B----1---1----1---3---1---------------3----3-----------3--------1----]
G----------2-------------------------------5-------------5----1------]
D----------------------------3-----3-------3---5--5--5------0--------]
A----0--------------------2----------------5-------------------------]
E------------------------------------------3-------------------------]
            
Submit corrections

comments powered by Disqus
↑ Back to top | Richard Marx Tabs for Heaven Knows. Lyrics for acoustic guitar and electric guitar. Tablatures and chords are parodies/interpretations of the original songs. You may use it for private study, scholarship, research or language learning purposes only