» » »

Hazard Tabs (ver.3)

Artists:  A B C D E F G H I J K L M N O P Q R S T U V W X Y Z # 

Hazard Tabs (ver.3)

Richard Marx
Rating:
0/5 (0 votes)

Tabs too difficult? Try these video lessons and learn fast.
                [played on a nylon string guitar]

Symbols
=======
/=slide
p=pull off
H=hammer on

e-6-6-5-5--5/3--5--6---|-6-5-6-8--8/10--10-8-6--5H6P5---------------|
B----------------------|---------------------------------6--8-------|
G----------------------|--------------------------------------5-----|
D----------------------|--------------------------------------------|
A----------------------|--------------------------------------------|
E----------------------|--------------------------------------------|


e----------------------|------------------------------5-6-8-10-6-8--|
B--6--6P5--5-----------|------------------3-------3/6---------------|
G------------5---------|-3P2P0--2H3H5---3--5-0-3/5------------------|
D----------------------|--------------------------------------------|
A----------------------|--------------------------------------------|
E----------------------|--------------------------------------------|


e----5--6--8--10--13-13--11--10-10--8--6--5H6P5---------------------|
B--8---------------------------------------------8--10--6---8-------|
G-------------------------------------------------------------7--5--|
D-------------------------------------------------------------------|
A-------------------------------------------------------------------|
E-------------------------------------------------------------------|


e-----------------6-6-6---5-----------------------------------------|
B-----------6--8----------------------------------------------------|
G--5-5-5-7----------------------------------------------------------|
D-------------------------------------------------------------------|
A-------------------------------------------------------------------|
E-------------------------------------------------------------------|
            
Tabs too difficult? Try these video lessons and learn fast.




comments powered by Disqus
↑ Back to top | Tablatures and chords are parodies/interpretations of the original songs. You may use it for private study, scholarship, research or language learning purposes only