» » »

Tarea Fina Tabs (ver.1)

Artists:  A B C D E F G H I J K L M N O P Q R S T U V W X Y Z # 

Tarea Fina Tabs (ver.1)

Rey Patricio
Rating:
0/5 (0 votes)

Hard to play? Try these video lessons and learn fast.
                Patricio Rey y sus Redonditos de Ricota - Tarea Fina 
La Mosca y la Sopa (1991)

Intro:
 C                                            Am                                    G
|--------------------------------------------|--------------------------------------3~-|
|--------------------------------------------|---------------------------------8-5--3~-|
|-------0-----------------------0------------|---------------------------------0-0--0~-|
|-2-0-2---2---2-0-2-0-----2-0-2---2---0h2-2~-|---------2~---------0-2~-----------------|
|---------------------3----------------------|-0-3-0-3------0-3-0--------0-3-0---------|
|--------------------------------------------|-----------------------------------------|

Riff 1:
 C
|------------------------------------------------|
|-5-5~---6-5-8~--8---6-5-5~--5---6-6p5~---6-6h5~-|
|-5-5~---5-5-5~--5---5-5-5~--5---5-5p5~---5-5h5~-|
|-5-5~---5-5-5~--5---5-5-5~--5---7-7p5~---7-7h5~-|
|------------------------------------------------|
|------------------------------------------------|

Riff 2:
 Am                                                                       G
|----------------------------------------------------------------------------|
|-----5-5---------5-5---------5-5---------5-5---------5-5---------5-5h5---12-|
|-----5-5---------5-5---------5-5---------5-5---------5-5---------5-5h5---12-|
|-7---7-7---5h7---7-7---5h7---7-7---5h7---7-7---5h7---7-7---5h7---7-7h5---12-|
|-7---------5h7---------5h7---------5h7---------5h7---------5h7-----------10-|
|-5--------------------------------------------------------------------------|


Solo:
      C          Am         C             Am           G            F
|----------------------------------------------------------------------|
|-8p5-8-5~--------------8p5-8-5h8p5------------------------------------|
|------------9p7-9--------------------9p7-9------4-5-7-----------------|
|------------------7~-----------------------7~---------5~--------------|
|---------------------------------------------------------8-7-5-3-5----|
|-------------------------------------------------------------------1~-|

Riff3:
  Am F  Am F  Am F   G      F     G      F     G      F     G    Am
|-0--1--0--1--0--1-----------------------------------------------5-|
|-1--1--1--1--1--1---12-12-----------12-----------12--------12---5-|
|-2--2--2--2--2--2---12-12--10-10/12-12--10-10/12-12--10-10/12---5-|
|-2--3--2--3--2--3---12-12--10-10/12-12--10-10/12-12--10-10/12---7-|
|-0--3--0--3--0--3---10-10--8--8-/10-10--8--8-/10-10--8--8-/10---7-|
|----1-----1-----1-----------------------------------------------5-|


Intro

Riff 1
Quemando la turbina te escapás.
Riff1
¿Vas a volver a herirme otra vez?
Riff2
En tu ternura está acechándome
Una buena traición de mujer
Que echa hielo y brasas en mi corazón
Fumando en la oscuridad.

Riff1
Sobrio no te puedo ni hablar.
Riff1
Estoy perdido sin mi estupidez.
riff2
Un auto guapo va a venir por vos
Y nada va a cambiar.
Vas a vivir en el delta en un lanchón
Buscando de que reír.

        Bb               F
Con las piernas más bonitas.
         C                  Bb
Las más lindas piernas que vi.
       G              F
Y un juego rico de amores.
   C               Bb
Caída libre para dos.

Solo

Riff1
Le das la copa al fin al vencedor.
Riff1
Tarea fina perdida en mi soledad.
Riff2
No sé si no me gusta más que el rock,
Nunca la vi llorar.
Si no va sin freno no anda bien
Ni me encadena a su show.

        Bb               F
Con las piernas más bonitas.
         C                  Bb
Las más lindas piernas que vi.
       G              F
Y un juego rico de amores.
   C               Bb
Caída libre para dos.

Riff3 
            
Hard to play? Try these video lessons and learn fast. | Correct




comments powered by Disqus
↑ Back to top | Tablatures and chords are parodies/interpretations of the original songs. You may use it for private study, scholarship, research or language learning purposes only