» » »

Reynolds Tim, Offspring Tabs (ver.1)

Artists:  A B C D E F G H I J K L M N O P Q R S T U V W X Y Z # 

Offspring Tabs (ver.1)

Reynolds Tim Tabs
 Rating:
4/5 (4 votes)
Offspring lessons Tabs too difficult? Try these video lessons and learn fast
1
                
Standard Tuning

Note: It's easiest to use your middle finger and hold it on the bassline
note (E-3-3-3) and hold your ring finger and hold the high e and b 3rd fret 
notes. Use your index and pinky finger to play the other note.

Section A
e----------3-----------------3-5-7-3-----3----------3----------------
B--------3---3---------------3-3---3-----3--------3------------------
G--0-2-4-------2-2-2-0h2p0-4-----------2----0-2-4-----2-0--0-0-0--0--
D----------------------------------------------------------0-0-0--0--
A----------------------------------------------------------0-0-0-----
E--3-3-3-3-3-3-3-3-3-3-3-3-3---------3------3-3-3-3-3-3-3--3-3-3-3---
                                                          ^ v ^ 

Section B
e---3h5h7---7---7--7p5p3---7-3-5-7----7-7-5-3-------------
B-----------0--0--0-------0-----------7-7-5-3--\3-3-3--3--
G-------------0--0--0----0---------------------\4-4-4-4---
D---------5--0--0--0----0-----------5---------------------
A--------5-------------------------5----------------------
E-------3-------------------------3-----------------------


Section C
e---3-2-0-----3----2----0------------------
B------------------------------------------
G-----------2-2----4----2------------------
D----------2---2----4----2---0---0---------
A---------0-----0----2----2---2---0--------
E------------------------------3---2---0---


Section D, like all the rest of Tim's songs, there's tons of improv.
            
Submit corrections

comments powered by Disqus
↑ Back to top | Reynolds Tim Tabs for Offspring. Lyrics for acoustic guitar and electric guitar. 1 Tablatures and chords are parodies/interpretations of the original songs. You may use it for private study, scholarship, research or language learning purposes only