» » »

Revolting Cocks, Razor's Edge Bass tabs (ver.1)

Artists:  A B C D E F G H I J K L M N O P Q R S T U V W X Y Z # 

Razor's Edge Bass tabs (ver.1)

Revolting Cocks Tabs
 Rating:
4/5 (4 votes)
Razor's Edge lessons Tabs too difficult? Try these video lessons and learn fast
                Verse:
F#|------------------------------|
C#|----------------------2-------|
G#|----------------0-------------|
D#|--0--2--0--2-2-----2-----2----|

Break:
F#|----------------------------||----------------------------|
C#|----------------------------||----------------------------|
G#|-----3-----3-----3----------||-----3-----3-----3-----3----|
D#|--2-----2-----2-----2--2----||--2-----2-----2-----2-------|

F#|----------------------------||----------------------------|
C#|----------------------------||----------------------------|
G#|-----3-----3-----3-----3----||-----3-----3s--7--7--7--7---|
D#|--2-----2-----2-----2-------||--2-----2-------------------|

Chorus:
F#|--------------------------||--------------------------|
C#|--4--4--4--4--4--4--4--4--||--2--2--2--2--2--2--2--2--|
G#|--------------------------||--------------------------|
D#|--------------------------||--------------------------|

F#|--------------------------||--------------------------|
C#|--------------------------||--------------------------|
G#|--3--3--3--3--3--3--3--3--||--5--5--5--5--5--5--5--5--|
D#|--------------------------||--------------------------|

Final Chorus:

F#|--------------------------||--------------------------|
C#|--4--4--4--4--4--4--4--4--||--2--2--2--2--2--2--2--2--|
G#|--------------------------||--------------------------|
D#|--------------------------||--------------------------|

F#|--------------------------||--------------------------|
C#|--------------------------||--------------------------|
G#|--3--3--3--3--3--3--3--3--||--5--5--5--5--5--3--0--3--|
D#|--------------------------||--------------------------|

Verse (24x), Fill (1x), Verse (16x), Fill (1x), Verse (8x), Chorus (2x), Verse (20x), 
(1x), Verse (12x), Chorus (3x), Chorus final (1x), verse (42x).
            
Submit corrections

comments powered by Disqus
↑ Back to top | Revolting Cocks Bass for Razor's Edge. Lyrics for acoustic guitar and electric guitar. Tablatures and chords are parodies/interpretations of the original songs. You may use it for private study, scholarship, research or language learning purposes only