» » »

Da Ya Think Im Sexy Bass tabs (ver.1)

Artists:  A B C D E F G H I J K L M N O P Q R S T U V W X Y Z # 

Da Ya Think Im Sexy Bass tabs (ver.1)

Revolting Cocks
Rating:
0/5 (0 votes)

Hard to play? Try these video lessons and learn fast.
                
Play this the whole song :).

G||-------------------------|--------------------------|
D||-------------------------|--------------------------|
A||-------------------------|--1-----------------------|
E||--3--3-----3----3-----3--|-----3-----3-----3--1--2--|

G||-------------------------|--------------------------|
D||-------------------------|--------------------------|
A||-------------------------|--1-----------------------|
E||--3--3-----3----3-----3--|------------3----3--1--2--|
            
Hard to play? Try these video lessons and learn fast. | Correct




comments powered by Disqus
↑ Back to top | Tablatures and chords are parodies/interpretations of the original songs. You may use it for private study, scholarship, research or language learning purposes only