» » »

Catte Grind Bass tabs (ver.1)

Artists:  A B C D E F G H I J K L M N O P Q R S T U V W X Y Z # 

Catte Grind Bass tabs (ver.1)

Revolting Cocks
Rating:
0/5 (0 votes)

Hard to play? Try these video lessons and learn fast.
                Tuning: E A D G

Main Dealy, starts at 30 seconds into song
g|-----------------------------|
d|-----------------------------|
a|-----------------------------|
e|-7-/0--7-/0--7-/0--7-/0------|
sustain for a little then slide for each one

g|-----------------------------|
d|-----------------------------|
a|-5--5--5--5--5--5--5--5-5-5-5|
e|-----------------------------|

then back to...
g|-----------------------------|
d|-----------------------------|
a|-----------------------------|
e|-7-/0--7-/0--7-/0--7-/0------|

once again from 4:05 - 4:19
g|-----------------------------|
d|-----------------------------|
a|-5--5--5--5--5--5--5--5-5-5-5|
e|-----------------------------|

then of course back to...
g|-----------------------------|
d|-----------------------------|
a|-----------------------------|
e|-7-/0--7-/0--7-/0--7-/0------|

Once again,easy stuff,good bassline by Mr.Barker,
it truly is a RevCo world...
- Orbasm
            
Hard to play? Try these video lessons and learn fast. | Correct




comments powered by Disqus
↑ Back to top | Tablatures and chords are parodies/interpretations of the original songs. You may use it for private study, scholarship, research or language learning purposes only