>
 >
Seven

Seven Bass Tabs

Revis - Seven chords, tabs, tablatures, lyrics

Guitar lessons | Add/correct | Request | Top 50 tabs Artists:  A B C D E F G H I J K L M N O P Q R S T U V W X Y Z 0-9

Seven Bass Tabs – Revis

CD, Sheet music, Poster

Do you like Seven? Share with your friends now
Bass TabsChordsChords v2TabsUkuleleUkulele v2
Band- Revis
Song- Seven

Intro:
G|---------------|
D|---------------|  - Rest
A|---------------|
E|---------------|

Verse 1:
G|--------------------||------------------||------------------||---------------|
D|---------------0----||-------0-----0----||-------0-----0----||-------0-------| 
A|----------3---3-3---||--------3---3-3---||--------3---3-3---||--------3------|
E|-0---33----------30-||-0--33---------30-||-0--33---------30-||-0--33---------|

Bridge 1:
G|-------------------||-------------------|
D|-------------------||-------------------|
A|-320---00-3--/5*8--||-0-0--00-3-3-/5*8--|
E|-------------------||-------------------|

Chorus 1:
G|--------------------||------------------||------------------||---------------|
D|---------------0----||-------0-----0----||-------0-----0----||-------0-------| 
A|----------3---3-3---||--------3---3-3---||--------3---3-3---||--------3------|
E|-0---33----------30-||-0--33---------30-||-0--33---------30-||-0--33---------|

Ending 1:
G|------------------5--|
D|----------0------5---|
A|-----------3---33----|
E|-0--0--33------------|

Verse 2:
G|---------------0----||---------------0-----||--------------------||---------------0-----|
D|-2--------0-222-402-||----------0-222-4020-||----------0-222-0---||----------0-222-4020-|
A|------0-3-----------||------0-3------------||------0-3------3-30-||------0-3------------|
E|----3---------------||-0--3----------------||-0--3---------------||-0--3----------------|

Bridge 2:
G|---------------||-----------------|
D|---------------||-----------------|
A|-0---00-3r-----||-0-0--00-3r------|
E|---------------||-----------------|

Chorus 2:
G|--------------------||------------------||------------------||-------------|
D|---------------0----||-------0-----0----||-------0-----0----||-------0-----| 
A|----------3---3-3---||--------3---3-3---||--------3---3-3---||--------3*9--|
E|-0---33----------30-||-0--33---------30-||-0--33---------30-||-0--33-------|

Solo: (...can I be the same....)
G|----------------------------||-----------------------------|
D|-----02r------02r--2--------||-----02r------02r--2---------| - (Note, 02r might not be in
A|--------------------3*8-----||--------------------3*7------|   there, so I impravised. I
E|-0000----0-000----------3*7-||-0000----0-000----------3*5--|   think it blends nicely.)
      (...the same.....)
G|----------------------------||----------------------------|
D|-----02r------02r--2--------||-----02r------02r--2--------|
A|--------------------3*8-----||--------------------3*7-----|
E|-0000----0-000----------3*7-||-0000----0-000----------3*7-|

Bridge 3:
G|-----------||----------|
D|-----------||----------|
A|-0-0---00--||-3r-------|
E|-----------||----------|

Chorus 3:
G|--------------------||------------------||------------------||--------5-4-2-0-02-|
D|---------------0----||-------0-----0----||-------0-----0----||----00-------------| 
A|----------3---3-3---||--------3---3-3---||--------3---3-3---||-------------------|
E|-0---33----------30-||-0--33---------30-||-0--33---------30-||-0-----------------|

Conclusion:

G|-------------------||-------------------||-------------------||-------------------|
D|-------------------||-------------------||-------------------||-------------------|
A|----------3*8/5*6--||----------3*8/5*6--||----------3*8/5*6--||----------3*8/5*6--|
E|-0*8--0*8----------||-0*8--0*8----------||-0*8--0*8----------||-0*8--0*8----------|

Ending 2:
G|-----------||----------|
D|-----------||----------|
A|-0-0---00--||-3r-------|
E|-----------||----------|





Comments


Popular Revis tabs & chords
Revolver Chords
Seven Chords
Seven 2 Chords
From That Point On Tabs
Living Rooms Tabs
Save Our Souls Tabs
Seven Tabs
Spin Intro Tabs
Seven Ukulele
Seven 2 Ukulele


Song lyrics



↑ Back to top | Tablatures and chords are parodies/interpretations of the original songs. You may use it for private study, scholarship, research or language learning purposes only
© 2014 AZChords.com Contact us | Privacy policy | DMCA | Add/correct tabs | Request tabs | Top 50 tabs