>
 >
Places For Breathing

Places For Breathing Guitar Tabs

Revis - Places For Breathing chords, tabs, tablatures, lyrics

Guitar lessons | Add/correct | Request | Top 50 tabs Artists:  A B C D E F G H I J K L M N O P Q R S T U V W X Y Z 0-9

Places For Breathing Guitar Tabs – Revis

CD, Sheet music, Poster

Do you like Places For Breathing? Share with your friends now
Tabs
-----------------------------------------------------------------------
-----------------------------------------------------------------------



Tuning: Standard tuning (E,A,D,G,B,e)
       

Intro/Verse (Acoustic 1) play 2x for Intro and 4x for Verse
E|3-3-3-3-35-5-5-5-----5-5-5-5-55-5-5|
B|4-2-4-3-33-3-3-3b4r3-0-3-0-3-33-3-3|
G|0-0-0-0-00-4-4-4b5r4-0-4-0-3-33-3-3|
D|-----------------------------------|
A|-----------------------------------|
E|-----------------------------------|


Pre-Chorus (Acoustic 1) you can figure out the strumming pattern
Last time play each chord once
E|3-3-5-3|
B|1-0-1-3|
G|0-0-3-2|
D|0-0-3-5|
A|-------|
E|-------|


Pre-Chorus (Acoustic 2)
E|-----------------------------------------|
B|10-8-10-11-10-8-10-11-10-8-10-11-10-8---8|
G|--------------------------------------10-|
D|-----------------------------------------|
A|-----------------------------------------|
E|-----------------------------------------|


Pre-Chorus (Clean w/ Delay)
E|---------------------------------------|
B|10-8-10-11-10-8-10~~~-8-10-11-10-8-----|
G|-----------------------------------10~~|
D|---------------------------------------|
A|---------------------------------------|
E|---------------------------------------|


Repeat Verse
Repeat Pre-Chorus

Post-Chorus (Acoustic 1)
E|0~-0~-0~-0~|
B|1~-0~-1~-3~|
G|2~-1~-2~-4~|
D|2~-2~-2~-0~|
A|0~-2~-0~-2~|
E|---0~----3~|


Bridge (Distorted) figure out the rhythm yourself its not hard
E|3---1-0|
B|3-7-1-1|
G|4-7-2-2|
D|5-7-3-2|
A|5-5-3-0|
E|3---1--|


Outro (Acoustic)
E|0~--0~-|
B|1-3-1-3|
G|2-4-2-4|
D|2-0-2-0|
A|-------|
E|-------|





Comments


Popular Revis tabs & chords
Seven Bass Tabs
Revolver Chords
Seven Chords
City Beneath Tabs
Everything After Tabs
Fire And Ice Tabs
Save Our Souls Tabs
Spin Intro Tabs
Straight Jacket Labels Tabs
Seven 2 Ukulele


Song lyrics



↑ Back to top | Tablatures and chords are parodies/interpretations of the original songs. You may use it for private study, scholarship, research or language learning purposes only
© 2014 AZChords.com Contact us | Privacy policy | DMCA | Add/correct tabs | Request tabs | Top 50 tabs