» » »

Revis, Fire And Ice Tabs (ver.1)

Artists:  A B C D E F G H I J K L M N O P Q R S T U V W X Y Z # 

Fire And Ice Tabs (ver.1)

Revis Tabs
 Rating:
4/5 (5 votes)
Fire And Ice lessons Tabs too difficult? Try these video lessons and learn fast
1
                -------------------------------------------------------------------------------
-------------------------------------------------------------------------------

Tuning: Standard EADGBA

 I've been waiting 6 years for this album to come out, this song makes it well worth the 
wait.   This is my second tab ever btw (Seether-Tongue), so go easy on me.

VERSE

Am G C*

Am G F

Dm C G


* Here's the filler for the C Chord
e|----0-----------0---------------------------------------------------------|
B|----1-----------1---------------------------------------------------------|
G|----0-----------0---------------------------------------------------------|
D|----2--2h3h2h0--2---------------------------------------------------------|
A|----3-----------3---------------------------------------------------------|
E|--------------------------------------------------------------------------|

Chorus/Bridge "And everyone that I meet"

 Dm C Am

Dm G Am

Dm G F (hold the F)

F   Dm    G        "Turning endless we find"


Solo
e|--------------------------------------------------------------------|
B|--------------------------------------------------------------------|
G|----2/9~--7~-------------7h9~ 7-7h9------------7~-------------------|
D|-------------10~----10--------------10\7---7h9----9h7~--------------|
A|--------------------------------------------------------------------|
E|--------------------------------------------------------------------|

e|--------------------------------------------------------------------|
B|-------------------------------15-15~-------------15 15-------------|
G|--------7~-----7/16~--16h14h16----------16h14h16----------16-14-----|
D|---7h9-----10-------------------------------------------------------|
A|--------------------------------------------------------------------|
E|--------------------------------------------------------------------|


************************************

| /   slide up
| \   slide down
| h   hammer-on
| p   pull-off
| ~   vibrato
| +   harmonic
| x   Mute note
| b   Bend
| pb  Pre-bend
| br  Bend release
| pbr Pre-bend release
| brb Bend release bend

************************************
            
Submit corrections

comments powered by Disqus
↑ Back to top | Revis Tabs for Fire And Ice. Lyrics for acoustic guitar and electric guitar. 1 Tablatures and chords are parodies/interpretations of the original songs. You may use it for private study, scholarship, research or language learning purposes only