» » »

City Beneath Tabs (ver.1)

Artists:  A B C D E F G H I J K L M N O P Q R S T U V W X Y Z # 

City Beneath Tabs (ver.1)

Revis
Rating:
5/5 (4 votes)

Hard to play? Try these video lessons and learn fast.
                Band- Revis
Song- City Beneath

Intro:
----------------------------------------------------------------|
----------------------------------------------------------------|
--11-11-11-\--5-5-5-5-5-5\0----11-11-11-11-\--5b-5---5----------|
--x--x--x--\--x-x-x-x-x-x\0----x--x--x—-x--\--x--x-3-x-3--------|
--9--9--9--\--3-3-3-3-3-3\0----9—-9-—9—-9--\--3b-3-3-3-3--------|
----------------------------------------------------------------|

----------------------------------------------------------------|
----------------------------------------------------------------|
--11-11-11-\--5-5-5-5-5-5\0----11-11-11-11-\--5-5-5\0-----------|
--x--x--x--\--x-x-x-x-x-x\0----x--x--x—-x--\--x-x-x\0-----------|
--9--9--9--\--3-3-3-3-3-3\0----9—-9-—9—-9--\--3-3-3\0-----------|
----------------------------------------------------------------|

----------------------------------------------------------------|
----------------------------------------------------------------|
----------------------------------------------------------------|
---2-2-1-1-0~---------------------------------------------------|
---2-2-1-1-0~---------------------------------------------------|
---2-2-1-1-0~---------------------------------------------------|
pm . . . .


Verse:  There is some guitar very quiet in the background that I didn’t hear till about 
in the verse too, one such effect I do not have.  The song sounds fine with just drums here.

Pre-Chorus
----------------------------------------------------------------|
----------------------------------------------------------------|
--11-11-11-\--5-5-5-5-5-5\0----11-11-11-11-\--5b-5---5----------|
--x--x--x--\--x-x-x-x-x-x\0----x--x--x—-x--\--x--x-3-x-3--------|
--9--9--9--\--3-3-3-3-3-3\0----9—-9-—9—-9--\--3b-3-3-3-3--------|
----------------------------------------------------------------|

----------------------------------------------------------------|
----------------------------------------------------------------|
--11-11-11-\--5-5-5-5-5-5\0----11-11-11-11-\--5-5-5-------------|
--x--x--x--\--x-x-x-x-x-x\0----x--x--x—-x--\--x-x-x-2-2-1-1-----|
--9--9--9--\--3-3-3-3-3-3\0----9—-9-—9—-9--\--3-3-3-2-2-1-1-----|
----------------------------------------------------2-2-1-1-----|
pm                                                  . . . .

Chorus:
----------------------------------------------------------------|
----------------------------------------------------------------|
--11-11-11-11-11-11-11-11-11-11-11-11--9-9-9-9-9-9-9-9-9-9-9-9--|
--x--x--x--x--x--x--x--x--x--x--x--x---x-x-x-x-x-x-x-x-x-x-x-x--|
--9--9--9--9--9--9--9--9--9--9--9--9---7-7-7-7-7-7-7-7-7-7-7-7--|
----------------------------------------------------------------|

Repeat 4x


Post-Chorus:
----------------------------------------------------------------|
----------------------------------------------------------------|
----------------------------------------------------------------|
--5-5-5-5-5-5-5-5--8-8-8-8-8-8-8-8-—----------------------------|
--5-5-5-5-5-5-5-5--8-8-8-8-8-8-8-8-—----------------------------|
--5-5-5-5-5-5-5-5--8-8-8-8-8-8-8-8—-----------------------------|

Pre-Chorus   1x

Chorus       1x

Post-Chorus  1x


Solo-Thingy
(this uses some sort of effects pedal, sounds like a combo of wah and delay, I can’t be sure)

--15-(stum many times)--17--------------17-------17v-----------|
--15-----------------------15-15-15v-------15-15---------------|
---------------------------------------------------------------|
---------------------------------------------------------------|
---------------------------------------------------------------|
---------------------------------------------------------------|


Chorus      1x

Post-Chorus 2x

Outro
(same effects as solo)

--15-(strum many times)-14-14-13-13-12--17----------17------17v-|
--15--------------------14-14-13-13-12----15-15-15v---15-15-----|
----------------------------------------------------------------|
----------------------------------------------------------------|
----------------------------------------------------------------|
----------------------------------------------------------------|
            
Hard to play? Try these video lessons and learn fast. | Correct




comments powered by Disqus
↑ Back to top | Tablatures and chords are parodies/interpretations of the original songs. You may use it for private study, scholarship, research or language learning purposes only