» » »

Revis, Caught In The Rain Tabs (ver.1)

Artists:  A B C D E F G H I J K L M N O P Q R S T U V W X Y Z # 

Caught In The Rain Tabs (ver.1)

Revis Tabs
Rating:
4/5 (8 votes)
Caught In The Rain lessons Tabs too difficult? Try these video lessons and learn fast
                tuning:D,A,D,G,B,E

intro=clean with some kind of effect
E|-----------------------------------------------------
B|-----------------------------------------------------  repeat 4x 
G|-----------------------------------------------------   
D|-----------------------------------------------------
A|-7-7-7-5-5-5--0---0-0-0-0--7-7-7-7-7-7--0---0-0-0-0--  
D|-4-4-4-4-4-4--4-~-4-4-4-4--5-5-5-5-5-5--5-~-5-5-5-5--

add distortion
E|------------------------------------------
B|------------------------------------------   repeat 2x  
G|------------------------------------------     
D|-5--7-7-5-7-5-7-5-7-5-7-------------------   
A|-5--7-7-5-7-5-7-5-7-5-7----7-7-7-7-7------
D|-5--7-7-5-7-5-7-5-7-5-7----4-4-4-4-4------

(clean guitar) or acoustic
E|------------------------------------------
B|------------------------------------------  
G|-9-9-9-9-9-9-9-9-9-9-9-9-9-9-9-9---------- 
D|-7-7-7-7-7-7-7-7-7-7-7-7-7-7-7-7----------  repeat trough out verse
A|-7-7-7-7-7-7-7-7-7-7-7-7-7-7-7-7----------
D|-7-7-7-7-7-7-7-7-7-7-7-7-7-7-7-7----------

(chorus-with distortion)
E|----------------------------------------------------------
B|----------------------------------------------------------  
G|----------------------------------------------------------
D|-------5-5-5-0-0-0-0-0-7-7-7-2-2-2-5-0---5-7-7-5-7-5------  repeat 2x
A|-7-7-7-5-5-5-0-0-0-0-0-7-7-7-2-2-2-5-0---5-7-7-5-7-5------
D|-5-5-5-5-5-5-0-0-0-0-0-7-7-7-2-2-2-5-0---5-7-7-5-7-5------

guitar 2 (i think its the solo part)
E|----------------------------------------
B|----------------------------------------
G|--6-7-6-0-6-6-7-6-0-6-------------------
D|----------------------------------------
A|----------------------------------------
D|----------------------------------------

(distortion or clean doesnt matter)
E|------------------------------------------
B|------------------------------------------ 
G|------------------------------------------
D|-7----------------------------------------   repeat 2x  
A|-7----4----7----4----7--------------------
D|-7----7----4----7----4--------------------

(chorus-with distortion)
E|----------------------------------------------------------
B|---------------------------------------------------------- 
G|----------------------------------------------------------
D|-------5-5-5-0-0-0-0-0-7-7-7-2-2-2-5-0---5-7-7-5-7-5------   repeat 2x
A|-7-7-7-5-5-5-0-0-0-0-0-7-7-7-2-2-2-5-0---5-7-7-5-7-5------
D|-5-5-5-5-5-5-0-0-0-0-0-7-7-7-2-2-2-5-0---5-7-7-5-7-5------

(clean guitar or acoustic)
E|------------------------------------------
B|------------------------------------------  
G|------------------------------------------
D|------------------------------------------
A|-7-7-7-5-5-5--0---0-0-0-0-----------------
D|-5-5-5-5-5-5--5-~-5-5-5-5-----------------
                                                (repeat 8x)
(with distrotion)
E|------------------------------------------   
B|------------------------------------------  
G|------------------------------------------    
D|------------------------------------------
A|-7-7-7-5-5-5--0---0-0-0-0-----------------
D|-4-4-4-4-4-4--4-~-4-4-4-4-----------------


(guitar 2 solo) 
E|-9-10-9-5-9-9-10-9-5-9-9-10-9-------------
B|------------------------------------------
G|------------------------------------------
D|------------------------------------------
A|------------------------------------------
D|------------------------------------------

E|-12-14-12-0-12-12-14-12-0-12-12-14-12-----
B|------------------------------------------
G|------------------------------------------
D|------------------------------------------
A|------------------------------------------
D|------------------------------------------


E|-9-10-9-5-9-9-10-9-5-9-9-10-9-15-17-------
B|------------------------------------------
G|------------------------------------------
D|------------------------------------------
A|------------------------------------------
D|------------------------------------------

(this is the acoustic part)
E|----------------------------------------------------------
B|----------------------------------------------------------  
G|----------------------------------------------------------
D|-------5-5-5-0-0-0-0-0-7-7-7-2-2-2-5-0---7~---------------
A|-7-7-7-5-5-5-0-0-0-0-0-7-7-7-2-2-2-5-0---7~---------------
D|-5-5-5-5-5-5-0-0-0-0-0-7-7-7-2-2-2-5-0---7~---------------

(add the distortion
E|----------------------------------------------------------
B|----------------------------------------------------------  
G|----------------------------------------------------------
D|-------5-5-5-0-0-0-0-0-7-7-7-2-2-2-5-0---5-7-7-5-7-5------
A|-7-7-7-5-5-5-0-0-0-0-0-7-7-7-2-2-2-5-0---5-7-7-5-7-5------
D|-5-5-5-5-5-5-0-0-0-0-0-7-7-7-2-2-2-5-0---5-7-7-5-7-5------

(with distortion)
E|------------------------------------------   
B|------------------------------------------    
G|------------------------------------------
D|------------------------------------------   
A|-7-7-7-7-7-7-7-7-7-7-7-7-7-7-7------------
D|-5-5-5-5-5-5-5-0-0-0-0-4-4-4-4------------

E|------------------------------------------
B|------------------------------------------
G|------------------------------------------  
D|-7----------------------------------------
A|-7----------------------------------------    
D|-7----------------------------------------
            

comments powered by Disqus
↑ Back to top | Revis Tabs for Caught In The Rain. Lyrics for acoustic guitar and electric guitar. Tablatures and chords are parodies/interpretations of the original songs. You may use it for private study, scholarship, research or language learning purposes only