» » »

Caught In The Rain Bass tabs (ver.1)

Artists:  A B C D E F G H I J K L M N O P Q R S T U V W X Y Z # 

Caught In The Rain Bass tabs (ver.1)

Revis
Rating:
0/5 (0 votes)

Hard to play? Try these video lessons and learn fast.
                Band- Revis
Song- Caught In The Rain

Tuning: GDAD

Intro:
G|-------------------|
D|  Wait 4 Measures
A|  or count to 16.
D|-------------------|

G|--------------------------------------|   |---------------||-----------------|
D|--------------------------------------|   |---------------||-----------------|
A|--------------------------------------|   |--0-0-0-0---0--||-----------------| 2x
D|-44444444-44444444-55555555-55555555--|   |-5-5-5-5---5-5-||-24-24-24-24-242-|
                     
Verse 1:                End 1              End 2
G|------------------|  |-----|      |------------------|
D|------------------|  |-----|      |------------------|     
A|--0-0-0-----------|  |-----| 2x   |--0-0-0-----------| 2x     ~
D|-5-5-5---24-24-24-|  |-420-|      |-5-5-5---24-24-24-|

Chorus 1:
G|--------------------------------------||----------------------------------|
D|--------------------------------------||----------------------------------| 2x ~
A|----------------54--000000------------||----------------54--000000-000000-|     
D|-555555-000000-------------222222--24-||-555555-000000--------------------|

Verse 2:
G|-------||-------------------------------|        
D|-Slide-||-------------------------------|     
A|-<--5--||--0-0-0-0--0-------------------| 4x  ~
D|-------||-5-5-5-5--5-5---24-24-24-24-242|       


Chorus 2:                                                                    
G|--------------------------------------| |---------------------------|    
D|--------------------------------------| |---------------------------| 2x  
A|----------------54--000000------------| |----------------5-4-000000-|       
D|-555555-000000-------------222222--24-| |-555555-000000-------------|    

   End 1       End 2
|--------|  |-22---242-|
|--------|  |----------|   ~ 
|-000000-|  |---00-----|
|--------|  |----------|

Bridge:
G|-------------------------------------------------------|
D|----------------------------------------------77777777-|
A|--------------------------------------------7----------|
D|-44444444-44444444-55555555-55555555-777777------------|

G|---------------------------------------------------------------------------|
D|-------------------------------------------------------5-77777777-77777777-|
A|------------------------------------------------------7--------------------|
D|-55555555-55555555-44444444-44444444-55555555-5555555----------------------|

Quiet - Vocals Solo.

Chorus Final:
G|--------------------------------------||----------------------------------|
D|--------------------------------------||----------------------------------| 
A|----------------54--000000------------||----------------54--000000-000000-|     
D|-555555-000000-------------222222--24-||-555555-000000--------------------|

Ending:
G|------------------------------------------------------|
D|--5--4--5---------------------------------------------|
A|-----------0------------540----------540----------540-|
D|--------------2---245-0------2-245-0------2-245-0-----|
            
Hard to play? Try these video lessons and learn fast. | Correct




comments powered by Disqus
↑ Back to top | Tablatures and chords are parodies/interpretations of the original songs. You may use it for private study, scholarship, research or language learning purposes only