>
 >
Psychobilly Freakout

Psychobilly Freakout Guitar Tabs

Reverend Horton Heat - Psychobilly Freakout chords, tabs, tablatures, lyrics

Guitar lessons | Add/correct | Request | Top 50 tabs Artists:  A B C D E F G H I J K L M N O P Q R S T U V W X Y Z 0-9

Psychobilly Freakout Guitar Tabs – Reverend Horton Heat

CD, Sheet music, Poster

Do you like Psychobilly Freakout? Share with your friends now
Bass TabsBass Tabs v2Bass Tabs v3TabsTabs v2
-------------------------------------------------------------------------------
-------------------------------------------------------------------------------

This is the entire song in it's basic structure. I'm still working on his fancy fill-ins 
this is all you need to get started playing.

Tuning: Standard

(I) Intro

e|-----------------------------------------------------|
B|-----------------------------------------------------|
G|--------------------------------------------------6--|
D|----------------8p7-5-5h7-5-----------------8p7-5-7--|
A|-1p0-------------------------1p0---------------------|
E|-----3-3h5p3-0-------------------3-3h5p3-0-----------|

e|-----------------------------------------------------|
B|-----------------------------------------------------|
G|--------------------------------------------------6--|
D|----------------8p7-5-5h7-5-----------------8p7-5-7--|
A|-1p0-------------------------1p0---------------------|
E|-----3-3h5p3-0-------------------3-3h5p3-0-----------|

(II) Bass and drums join

e|--0--------------------------------|
B|--0--------------------------------|
G|--0--------------------------------|
D|--2--------------------------------|
A|--2--------------------------------|
E|--0h3-0h3-0h3-0h3-0h3-0h3-0h3-0h3--|

e|--0--------------------------------|
B|--0--------------------------------|
G|--0--------------------------------|
D|--2--------------------------------|
A|--2--------------------------------|
E|--0h3-0h3-0h3-0h3-0h3-0h3-0h3-0h3--|

(III) First riff

e|-----0-----------------0-----------------0-------------|
B|-----0----7--6--5------0----7--6--5------0----7--6--5--|
G|-----0----7--6--5------0----7--6--5------0----7--6--5--|
D|----------7--6--5-----------7--6--5-----------7--6--5--|
A|-------------------------------------------------------|
E|-0-------------------0----------------0----------------|

e|----0---0--0----0---0----0--12--|
B|---11--10--8---10--11---10--12--|
G|--------------------------------|
D|--------------------------------|
A|--------------------------------|
E|--------------------------------|

e|-----0-----------------0-----------------0-------------|
B|-----0----7--6--5------0----7--6--5------0----7--6--5--|
G|-----0----7--6--5------0----7--6--5------0----7--6--5--|
D|----------7--6--5-----------7--6--5-----------7--6--5--|
A|-------------------------------------------------------|
E|-0-------------------0-----------------0---------------|

e|--------------------------------------------------------------|
B|---8-8-8-8-7-7-7-7-5-5-5-5------------------------------------|
G|---------------------------7-7-7-7-6-6-6-6-5-5-5-5-4-4-4-4-0--|
D|--------------------------------------------------------------|
A|--------------------------------------------------------------|
E|--------------------------------------------------------------|

(IV) Build

e|------------------------------------------------------|
B|----------8-8-8--------10-10-10-------------12-12-12--|
G|----9-------------9-------------------9---------------|
D|------------------------------------------------------|
A|------------------------------------------------------|
E|--0---0---------0---0---------------0----0------------|

e|--------------------|
B|--------------------|
G|---9-9-9-9-9-9-9-9--|
D|---9-9-9-9-9-9-9-9--|
A|---7-7-7-7-7-7-7-7--|
E|--------------------|

(V) Main riff

e|-----------------------------------|
B|--5-7-5-7-5-7-5-7-5-7-5-7-5-7-5-7--|
G|--5-7-5-7-5-7-5-7-5-7-5-7-5-7-5-7--|
D|--5-7-5-7-5-7-5-7-5-7-5-7-5-7-5-7--|
A|-----------------------------------|
E|-----------------------------------|

e|-----------------------------------0~~~---|
B|-----------------------------------0~~~---|
G|---4---5---4---3---4---2-----------0~~~---|
D|---4---5---4---3---4---2---5---4---2~~~---|
A|---2---3---2---1---2---0---5---4---2~~~---|
E|---------------------------3---2---0~~~---|

(VI) Simple riff (played near the end of the song)

e|---------------------------------|
B|---------------------------------|
G|---------------------------------|
D|---------------------------------|
A|-----2-------5------5-2h3p2-0-2--|
E|-0-3-----0-3----0-3--------------|

| h  hammer-on
| p  pull-off
| ~  vibrato
==========================================================================





Comments


Popular Reverend Horton Heat tabs & chords
Jimbo Song Bass Tabs
Lie Detector Bass Tabs
Baby,Im Drunk Tabs
Bad Reputation Tabs
Big Red Rocket Of Love Tabs
Five O Ford Tabs
Five O Ford 1 Tabs
One Time For Me 1 Tabs
Pride Of San Jacinto Tabs
Someone In Heaven Tabs


Song lyrics



↑ Back to top | Tablatures and chords are parodies/interpretations of the original songs. You may use it for private study, scholarship, research or language learning purposes only
© 2014 AZChords.com Contact us | Privacy policy | DMCA | Add/correct tabs | Request tabs | Top 50 tabs