» » »

Revelation Theory, World To Burn Tabs (ver.1)

Artists:  A B C D E F G H I J K L M N O P Q R S T U V W X Y Z # 

World To Burn Tabs (ver.1)

Revelation Theory Tabs
Rating:
5/5 (2 votes)
World To Burn lessons Tabs too difficult? Try these video lessons and learn fast
                -------------------------------------------------------------------------------
-------------------------------------------------------------------------------


Tuning: Drop D (D A D G B e)

other guitarist to learn, seeing as there is not a tab yet, at least at the
time of this writing.  The hardest part of this song is the bridge which at
least in my opinion is still not hard.  Now most of this tab should be very
close to being accurate, but I can't guarantee I have every note on here
exactly with the exact amount of repetitions, but it should have the right
notes on here. 

   Intro:  Guitar 1  [With Distortion]
e|---------------------------------------------------------------------------|
B|---------------------------------------------------------------------------|
G|------------------------------------------------------10-------------------|
D|-1p0-0-0---1p0-0---0-1h3-3-3-----1p0-0-0---1p0-0---0-----------------------|
A|-1p0-0-0---1p0-0---0-1h3-3-3-----1p0-0-0---1p0-0---0--8--------------------|
D|-1p0-0-0---1p0-0---0-1h3-3-3-----1p0-0-0---1p0-0---0-----------------------|

   Intro Continued:  Guitar 1
e|---------------------------------------------------------------------------|
B|---------------------------------------------------------------------------|
G|---------------------------------------------------------------------------|
D|-1p0-0-0---1p0-0---0-1h3-3-3-----1p0-0-0---1p0-0---2-2-2-2-----------------|
A|-1p0-0-0---1p0-0---0-1h3-3-3-----1p0-0-0---1p0-0---2-2-2-2-----------------|
D|-1p0-0-0---1p0-0---0-1h3-3-3-----1p0-0-0---1p0-0---2-2-2-2-----------------|
                                                     HPM|---
   Intro Part 2:  Guitar 1
e|---------------------------------------------------------------------------|
B|---------------------------------------------------------------------------|
G|------------------------------------------------------10-------------------|
D|-1p0-0-0---1p0-0---0-1h3-3-3-----1p0-0-0---1p0-0---0-----------------------|
A|-1p0-0-0---1p0-0---0-1h3-3-3-----1p0-0-0---1p0-0---0--8--------------------|
D|-1p0-0-0---1p0-0---0-1h3-3-3-----1p0-0-0---1p0-0---0-----------------------|
 /
{  Intro Part 2:  Guitar 2
 \
e|---------------------------------------------------------------------------|
B|-15--15----15--15--15---15-------13--13----13--13--13---13-----------------|
G|---------------------------------------------------------------------------|
D|-12--12----12--12--12---12-------10--10----10--10--10---10-----------------|
A|---------------------------------------------------------------------------|
D|---------------------------------------------------------------------------|

   Intro Part 2 Continued:  Guitar 1
e|---------------------------------------------------------------------------|
B|---------------------------------------------------------------------------|
G|---------------------------------------------------------------------------|
D|-1p0-0-0---1p0-0---0-1h3-3-3-----1p0-0-0----1p0-0----1p0-------------------|
A|-1p0-0-0---1p0-0---0-1h3-3-3-----1p0-0-0----1p0-0----1p0-------------------|
D|-1p0-0-0---1p0-0---0-1h3-3-3-----1p0-0-0----1p0-0----1p0-------------------|
 /                                 PM|--------------------
{  Intro Part 2 Continued:  Guitar 2
 \
e|---------------------------------------------------------------------------|
B|-11--11----11--11--11---11-------10--10----10--10--10---10-----------------|
G|---------------------------------------------------------------------------|
D|-8---8-----8---8---8----8--------7---7-----7---7---7----7------------------|
A|---------------------------------------------------------------------------|
D|---------------------------------------------------------------------------|


   Verse: Guitar 1 [clean]
e|---------------------------------------------------------------------------|
B|---------------------------------------------------------------------------|
G|-7-----7-----7---10--9---5--5/7---5/7---7----------------------------------|
D|-------------------------------------------------------------------5-------|
A|-5-----5-----5---8---7---3--3/5---3/5---5--1-1-1-1-1-1-1/3-3-3-3-3-3-------|
D|-0-----0-----0---0---0---0--0-0---0-0---0--1-1-1-1-1-1-1/3-3-3-3-3-3-------|

e|------------------------------------------|--------------------------------|
B|------------------------------------------|--------------------------------|
G|-7-----7-----7---10--9---5--5/7---5/7---7-|--------------------------------|
D|------------------------------------------|------------------------5-------|
A|-5-----5-----5---8---7---3--3/5---3/5---5-|1-1-1-1-1-1-1/3-3-3-3-3-3-------|
D|-0-----0-----0---0---0---0--0-0---0-0---0-|1-1-1-1-1-1-1/3-3-3-3-3-3-------|
                                            /\ <-distortion comes in here 
   Verse Part 2: Guitar 1 [With Distortion]
e|---------------------------------------------------------------------------|
B|---------------------------------------------------------------------------|
G|---------------------------------------------------------------------------|
D|-7-7-7-7-7-7-7-7-10-10-10-9-9-9-5-5-5/7-7-7-7-7-7-7------------------------|
A|-5-5-5-5-5-5-5-5-8--8--8--7-7-7-3-3-3/5-5-5-5-5-5-5------------------------|
D|-0-0-0-0-0-0-0-0-0--0--0--0-0-0-0-0-0-0-0-0-0-0-0-0------------------------|
   
   Verse Part 2 Continued: Guitar 1
e|---------------------------------------------------------------------------|
B|---------------------------------------------------------------------------|
G|---------------------------------------------------------------------------|
D|-------------------------5-------------------------------------------------|
A|-1-1-1-1-1-1-1/3-3-3-3-3-3--0---0---0-0---0---0-0---0---0-0---0---0--------|
D|-1-1-1-1-1-1-1/3-3-3-3-3-3--0---0---0-0---0---0-0---0---0-0---0---0--------|
                              PM  PM    PM  PM    PM  PM    PM  PM

   Chorus:  Guitar 1 [With Distortion]
e|---------------------------------------------------------------------------|
B|---------------------------------------------------------------------------|
G|-------------------------10-10-10-10---------------------------------------|
D|-0--0--0--0--0--0--0--0--8--8--8--8--10--10--10--10------------------------|
A|-0--0--0--0--0--0--0--0--8--8--8--8--10--10--10--10------------------------|
D|-0--0--0--0--0--0--0--0--8--8--8--8--10--10--10--10------------------------|
 /
{  Chorus:  Guitar 2 [With Distortion]
 \
e|---------------------------------------------------------------------------|
B|---------------------------------------------------------------------------|
G|-9--9--9--9--10-10-10-10-10-10-10-10--9---9---9---9------------------------|
D|---------------------------------------------------------------------------|
A|-7--7--7--7--8--8--8--8--8--8--8--8---7---7---7---7------------------------|
D|---------------------------------------------------------------------------|

   Chorus Continued:  Guitar 1 [With Distortion]
e|---------------------------------------------------------------------------|
B|---------------------------------------------------------------------------|
G|---------------------------------------------------------------------------|
D|-0--0--0--0--3--3--3--3--8--8--8--8--10--10--10--10------------------------|
A|-0--0--0--0--3--3--3--3--8--8--8--8--10--10--10--10------------------------|
D|-0--0--0--0--3--3--3--3--8--8--8--8--10--10--10--10------------------------|
 /
{  Chorus Continued:  Guitar 2 [With Distortion]
 \
e|---------------------------------------------------------------------------|
B|---------------------------------------------------------------------------|
G|-9--9--9--9--10-10-10-10-10-10-10-10---------------------------------------|
D|-------------------------8--8--8--8--10--10--10--10------------------------|
A|-7--7--7--7--8--8--8--8--8--8--8--8--10--10--10--10------------------------|
D|-------------------------8--8--8--8--10--10--10--10------------------------|

   Riff A (After Chorus):  Guitar 1 [With Distortion]
e|---------------------------------------------------------------------------|
B|---------------------------------------------------------------------------|
G|---------------------------------------------------------------------------|
D|-0---0---0-0---0---0-0---0---0-0---0h1-0---0---0-0---0---0-0---0---0-------|
A|-0---0---0-0---0---0-0---0---0-0---0h1-0---0---0-0---0---0-0---0---0-------|
D|-0---0---0-0---0---0-0---0---0-0---0h1-0---0---0-0---0---0-0---0---0-------|
   PM  PM    PM  PM    PM  PM    PM      PM  PM    PM  PM    PM  PM    

Then there is the small drum fill

Repeat the Verse Section
Repeat the Chorus Section

   Riff B (After Second Chorus):  Guitar 1 [With Distortion]
e|---------------------------------------------------------------------------|
B|---------------------------------------------------------------------------|
G|---------------------------------------------------------------------------|
D|-0---0---0-0---0---0-0---0---0-0---0h1-0---0---0-0---0---0-0---0---0-0--0h1|
A|-0---0---0-0---0---0-0---0---0-0---0h1-0---0---0-0---0---0-0---0---0-0--0h1|
D|-0---0---0-0---0---0-0---0---0-0---0h1-0---0---0-0---0---0-0---0---0-0--0h1|
   PM  PM    PM  PM    PM  PM    PM      PM  PM    PM  PM    PM  PM    PM

e|---------------------------------------------------------------------------|
B|---------------------------------------------------------------------------|
G|---------------------------------------------------------------------------|
D|-0---0---0-0---0---0-0---0---0-0---0h1-0---0---0-0---0---0-0---0---0-------|
A|-0---0---0-0---0---0-0---0---0-0---0h1-0---0---0-0---0---0-0---0---0-------|
D|-0---0---0-0---0---0-0---0---0-0---0h1-0---0---0-0---0---0-0---0---0-------|
   PM  PM    PM  PM    PM  PM    PM      PM  PM    PM  PM    PM  PM    

e|---------------------------------------------------------------------------|
B|---------------------------------------------------------------------------|
G|---------------------------------------------------------------------------|
D|-0---0---100---0---9-0---0---100----9--0---0---0-0---0---0-0---0---0-------|
A|-0---0---8-0---0---7-0---0---8-0----7--0---0---0-0---0---0-0---0---0-------|
D|-0---0-----0---0-----0---0-----0-------0---0---0-0---0---0-0---0---0-------|
   PM  PM    PM  PM    PM  PM    PM      PM  PM    PM  PM    PM  PM    

   Bridge: Guitar 1 [With Distortion and Wah]
e|---------------------------------------------------------------------------|
B|---------------------------------------------------------------------------|
G|---------------------------------------------------------------------------|
D|---------------------------------------------------------------------------|
A|-------8-8-8-8-8-7-7-7-------5-5-5-5-5-7-7-7-------------------------------|
D|-0-0-0-----------------0-0-0-----------------------------------------------|

e|---------------------------------------------------------------------------|
B|---------------------------------------------------------------------------|
G|---------------------------------------------------------------------------|
D|---------------------------------------------------------------------------|
A|-------8-8-8-8-8-7-7-7-------5-5-5-5-5-7-7-7-------------------------------|
D|-0-0-0-----------------0-0-0-----------------------------------------------|

e|---------------------------------------------------------------------------|
B|---------------------------------------------------------------------------|
G|---------------------------------------------------------------------------|
D|---------------10-8----------------8-7---------------10-8---------------8-7|
A|-------8-8-8-7-------------7-7-7-8-----------8-8-8-7------------7-7-7-8----|
D|-0-0-0---------------0-0-0-------------0-0-0--------------0-0-0------------|

e|---------------------------------------------------------------------------|
B|---------------------------------------------------------------------------|
G|---------------------------------------------------------------------------|
D|---------------------------------------------------------------------------|
A|-------8-8-8-8-8-7-7-7-------5-5-5-5-5-7-7-7-------------------------------|
D|-0-0-0-----------------0-0-0-----------------------------------------------|

e|---------------------------------------------------------------------------|
B|---------------------------------------------------------------------------|
G|---------------------------------------------------------------------------|
D|------------------------------8-8-8-8-8-7-7-7------------------------------|
A|-------8-8-8-8-8-7-7-7--------8-8-8-8-8-7-7-7------------------------------|
D|-0-0-0-----------------0-0-0--8-8-8-8-8-7-7-7------------------------------|

e|---------------------------------------------------------------------------|
B|---------------------------------------------------------------------------|
G|---------------------------------------------------------------------------|
D|---------------------------------------------------------------------------|
A|-------8-8-8-8-8-7-7-7-------5-5-5-5-5-7-7-7-------------------------------|
D|-0-0-0-----------------0-0-0-----------------------------------------------|

e|---------------------------------------------------------------------------|
B|---------------------------------------------------------------------------|
G|---------------------------------------------------------------------------|
D|---------------------------------------------------------------------------|
A|-------8-8-8-8-8-7-7-7---8-8-8-8-8-----------------------------------------|
D|-0-0-0-----------------0---------------------------------------------------|

Repeat the Chorus 2 more times
Repeat Riff B
Repeat Riff A (Riff A is Outro)

check out the notes and legend to

And that is World To Burn by Revelation Theory.  Enjoy!

Notes
|On the HPM in the intro on the 2's, you are going to lightly put your
|fingering hand on the 2's kind of like a natural harmonic, but directly
|on the fret and not the bar of the fret.  Then you are going to palm
|mute just regularly so you get the really heavy palm mute.

|Some of the notes in the Bridge can vary.  There might be more or less
|of the notes on the 4th (D) and 5th (A) stings, but that will give you
|the basic idea of how to play it.

Legend
| /    slide up
| \    slide down
| h    hammer-on
| p    pull-off
| ~    vibrato
| PM   palm mute
| HPM  heavy palm mute 
===============================================================================
            

comments powered by Disqus
↑ Back to top | Revelation Theory Tabs for World To Burn. Lyrics for acoustic guitar and electric guitar. Tablatures and chords are parodies/interpretations of the original songs. You may use it for private study, scholarship, research or language learning purposes only