» » »

Selfish And Cold Tabs (ver.1)

Artists:  A B C D E F G H I J K L M N O P Q R S T U V W X Y Z # 

Selfish And Cold Tabs (ver.1)

Revelation Theory
Rating:
4/5 (2 votes)
Tabs too difficult? Try these video lessons and learn fast.
                Revelation Theory - Selfish and Cold

The tuning for this song is 1 1/2 steps down drop D (i think)
It's pretty straight forward, just listen to the song and you'll get the queues.
I tabbed the guitar in time w/ the lyrics, so it'll give you an idea of when to play each part.


E---------------------------------------|
B---------------------------------------|
G-----------------------------------0-2-|
D---------------------------0-3---------|
A-----------------------3h5-----5-1-----|
D---------------------------------------|

you're the voice that's killing me

E--------------------------------------|
B--------------------------------------|
G---------------------------0----------|
D------------------0-3-----3-----------|
A--------------3h5-----5-1-------------|
D--------------------------------------|

your words are hard as they come

E--------------------------------------|
B--------------------------------------|
G-------------------------0-2----------|
D-----------------0-3------------------|
A-------------3h5-----5-1--------------|
D--------------------------------------|

thoughts that sit in here

E--------------------------------------|
B---------6p5-----5--------------------|
G-----------------5------7-------------|
D------------------------5-------------|
A--------------------------------------|
D--------------------------------------|

fall like bullets to the floor

E--------------------------------------| (whole band)
B-6p5------------6p5-------------------| (repeat 1x)
G-------------------------7------------|
D------7---5h7--------7---5------------|
A--------------------------------------|
D--------------------------------------|

E--------------------------------------|
B--------------------------------------|
G-------------------------0-2----------|
D-----------------0-3------------------|
A-------------3h5-----5-1--------------|
D--------------------------------------|

your heart is pulling me

E--------------------------------------|
B--------------------------------------|
G--------------------------0-----------|
D----------------0-3-----3-------------|
A------------3h5-----5-1---------------|
D--------------------------------------|

the cut runs deeper as it flows

E--------------------------------------|
B--------------------------------------|
G----------------------0-2-------------|
D--------------0-3---------------------|
A----------3h5-----5-1-----------------|
D--------------------------------------|

scars that cannot heal

E--------------------------------------|
B-----------6p5-----5------------------|
G-------------------5------7-----------|
D--------------------------5-----------|
A--------------------------------------|
D--------------------------------------|

the hurt is cutting to the bone

E--------------------------------------|
B--------6p5---------------------------|
G--------------------------------------|
D------------7--5h7-7-7----------------|
A--------------------------------------|
D--------------------------------------|

cause every time

E--------------------------------------|
B--------6p5---------------------------|
G--------------------------------------|
D------------7--5-5-5------------------|
A--------------------------------------|
D--------------------------------------|

it gets so complicated

E--------------------------------------|
B--------6p5---------------------------|
G--------------------------------------|
D------------7--5h7-7-7----------------|
A--------------------------------------|
D--------------------------------------|

while im lying down and out

E--------------------------------------|
B--------6p5---------------------------|
G--------------------------------------|
D------------7--5----------------------|
A---------------5----------------------|
D---------------5----------------------|

i just tell myself im leaving here

(chorus)

E--------------------------------------|
B--------------------------------------|
G---------3----------------------------|
D---------3-----------------3----------|
A---------1-----------------3----------|
D---------------------------3----------|

cause i'm selfish and i'm cold

E--------------------------------------|
B--------------------------------------|
G-----7--------------------------------|
D-----7--------------------------------|
A-----5--------------------------------|
D--------------------------------------|

and i feel like the world is ending

E--------------------------------------|
B--------------------------------------|
G-3-------------------------5----------|
D-3-----------------3-------5----------|
A-1-----------------3-------3----------|
D-------------------3------------------|

  faithless and i'm falling again

E--------------------------------------|
B--------------------------------------|
G---------3----------------------------|
D---------3-----------------3----------|
A---------1-----------------3----------|
D---------------------------3----------|

cause i'm selfish and i'm cold

E--------------------------------------|
B--------------------------------------|
G-----7--------------------------------|
D-----7--------------------------------|
A-----5--------------------------------|
D--------------------------------------|

and i feel like we're all pretending

E--------------------------------------|
B--------------------------------------|
G-3-----------------------5------------|
D-3----------------3------5------------|
A-1----------------3------3------------|
D------------------3-------------------|

  careless and i'm lonely again, well i am

E--------------------------------------|
B--------------------------------------|
G-------------0-2----------------------|
D-----0-3------------------------------|
A-3h5-----5-1--------------------------|
D--------------------------------------|

              torn...

E--------------------------------------|
B--------------------------------------|
G--------------------------0-----------|
D----------------0-3-----3-------------|
A------------3h5-----5-1---------------|
D--------------------------------------|

E--------------------------------------|
B--------------------------------------|
G--------------------0-2---------------|
D------------0-3-----------------------|
A--------3h5-----5-1-------------------|
D--------------------------------------|

  on the inside

E--------------------------------------|
B--------6p5---------------------------|
G--------------------------------------|
D------------7--5----------------------|
A---------------5----------------------|
D---------------5----------------------|

(verse 2)

the trust is dead in me
walls close higher all around
the cross i cannot bear
feels like pressure coming down
until now
the world was never jaded
yet i'm left here on my own
to pick up the pieces

(repeat chorus)

this time it tears right through me
i face the pain
and im torn
this time i fall away
not far enough
not far enough

(repeat chorus)
            
Tabs too difficult? Try these video lessons and learn fast.


comments powered by Disqus
↑ Back to top | Tablatures and chords are parodies/interpretations of the original songs. You may use it for private study, scholarship, research or language learning purposes only