>
 >
Hell Yeah 1

Hell Yeah 1 Guitar Tabs

Revelation Theory - Hell Yeah 1 chords, tabs, tablatures, lyrics

Guitar lessons | Add/correct | Request | Top 50 tabs Artists:  A B C D E F G H I J K L M N O P Q R S T U V W X Y Z 0-9

Hell Yeah 1 Guitar Tabs – Revelation Theory

CD, Sheet music, Poster

Do you like Hell Yeah 1? Share with your friends now
TabsTabs v2
Hello all. Tuning is Drop D + half step down 
(Db Ab Db Gb Bb eb). Song is played with a lot of 
distortion and feedback. Tab is very accurate, but
listen to song for timing.




Intro:

Lead
|-----------------|
|--10~~~~~~~~~~\--|
|-----------------|
|-----------------|
|-----------------|
|-----------------|
 
   < > indicates natural harmonic 
|-------------------------<7>-----------|
|---------------<7>~~~~~-----<7>--------|
|-------------------------------<7>-----|
|--2~~~~~~~~~~---------------------<7>--|
|--2~~~~~~~~~~--------------------------|
|--2~~~~~~~~~~--------------------------|

|------------------------------<7>---------------------|
|--------------------<7>~~~~~-----<7>------------------|
|------------------------------------<7>-----7/9~~~~~--|
|--2~~~~~~~~~~--------------------------<7>------------|
|--2~~~~~~~~~~-----------------------------------------|
|--2~~~~~~~~~~-----------------------------------------|

|----------------------------------------------|
|----------------------------------------------|
|------------------------------------7-7--9-9--|
|-------------------7-7--9-9--10-10------------| play 4x
|--7-7--9-9--10-10-----------------------------|
|----------------------------------------------|
PM ................................

|-----------------------------------------|
|-----------------------------------------|
|--7b~~~--7b~~~--7b~~~--7b~~~--7b-7b~~~~--| play 3x
|-----------------------------------------|
|-----------------------------------------|
|-----------------------------------------|
       
           gradually bend it
|------------------------------------------------|
|------------------------------------------------|
|--14b~~--14b-14b-14b-14b-14b-14b-14b-14b-14b-x--|
|------------------------------------------------|
|------------------------------------------------|
|------------------------------------------------|

                   gradually speed up picking
|--<5>~~~~~--<5>--<5>-<5>-<5>-<5>-<5>-<5>-<5>-<5>-<5>--|
|------------------------------------------------------|
|------------------------------------------------------|
|------------------------------------------------------|
|------------------------------------------------------|
|------------------------------------------------------|

|---------|---------------------------|
|---------|-----12----14-12-----------|
|---------|-----12----14-12-----------|
|--14~~~--|--14----14-------14-14~~~--|
|---------|---------------------------|
|---------|---------------------------|
                 this measure 4x
_______________________________________________________

Rhythm
|-------0~~~~~-----0~~~~~-----0~~~~~-------------|
|-------0~~~~~-----0~~~~~-----0~~~~~-------------|
|-------0~~~~~-----0~~~~~-----0~~~~~-------------|
|-------2~~~~~-----2~~~~~-----2~~~~~-------------|
|--/x\--2~~~~~-----2~~~~~-----2~~~~~-----/x\-----|
|--/x\-----------------------------------/x\-----|

|-------------------------------------------|
|-------------------------------------------|
|-------------4~~~~~-----2~~~~~-----2~~~~~--|
|--2~~~~~-----4~~~~~-----2~~~~~-----2~~~~~--|
|--2~~~~~-----2~~~~~-----0~~~~~-----0~~~~~--|
|--2~~~~~-----------------------------------|

|---------------------------------------------------|
|---------------------------------------------------| repeat
|---------------------------------------------------| a few 
|--2--2-2---2--2-2---2--2-2---2--2-2---2--2---2--2--| times
|--2--2-2---2--2-2---2--2-2---2--2-2---2--2---2--2--|
|--2--2-2---2--2-2---2--2-2---2--2-2---2--2---2--2--|
PM    ...      ...      ...      ...      .      .

|-----|------------------|-------------------|
|-----|------------------|-------------------|
|-----|------------------|-------------------|
|--2--|---------------2--|-------------------|
|--2--|---------------2--|-------------------|
|--2--|--2-4p2-5p2-2--2--|--2-4p2-5p2-2/22\--|
       repeat a few times




Verses:

lead and rhythm
|------|----------------------------------------------------------------|
|------|----------------------------------------------------------------|
|------|----------------------------------------------------------------|
|--2\--|--x-x-x-x-x-x-x-x-x-x-x-x-x--2---------------2---------------2--|
|--2\--|--x-x-x-x-x-x-x-x-x-x-x-x-x--2---------------2---------------2--|
|--2\--|--x-x-x-x-x-x-x-x-x-x-x-x-x--2--2-4p2-4p2-2--2--2-4p2-5p2-2--2--|
          ^ play this measure 2x

|----------------------------------|
|----------------------------------|
|----------------------------------|
|--x-x-x-x-x-x-x-x-x-x-x-x--2-2-2--| play this 2x
|--x-x-x-x-x-x-x-x-x-x-x-x--2-2-2--|
|--x-x-x-x-x-x-x-x-x-x-x-x--2-2-2--|

lead
|--<7>----------<7>-------------------------|
|-----<7>----------<7>----------------------|
|--------<7>----------<7>----<5>~~~~~~~~~~--|
|-----------<7>----------<7>----------------|
|-------------------------------------------|
|-------------------------------------------|

rhythm
|--------------------------------------------------------------------|
|--------------------------------------------------------------------|
|--------------------------------------------------------------------|
|--2-2-2-2-2-2-2-2-2-2-2-2-2-2-2-2--0-0-0-0-0-0-0-0-0-0-0-0-0-0-0-0--|
|--2-2-2-2-2-2-2-2-2-2-2-2-2-2-2-2--0-0-0-0-0-0-0-0-0-0-0-0-0-0-0-0--|
|--2-2-2-2-2-2-2-2-2-2-2-2-2-2-2-2--0-0-0-0-0-0-0-0-0-0-0-0-0-0-0-0--|




Choruses:

|-------------------------------------------|
|-------------------------------------------|
|-------------4~~~~~-----2~~~~~-----2~~~~~--| play 3x
|--2~~~~~-----4~~~~~-----2~~~~~-----2~~~~~--| strum chords
|--2~~~~~-----2~~~~~-----0~~~~~-----0~~~~~--| if so desired
|--2~~~~~-----------------------------------|

|---------------------------------------------------|
|---------------------------------------------------| 
|---------------------------------------------------|  
|--2--2-2---2--2-2---2--2-2---2--2-2---2--2---2--2--| 
|--2--2-2---2--2-2---2--2-2---2--2-2---2--2---2--2--|
|--2--2-2---2--2-2---2--2-2---2--2-2---2--2---2--2--|
PM    ...      ...      ...      ...      .      .



Post-choruses:

lead amd rhythm
|-----|-------------------------------------------|
|-----|-------------------------------------------|
|-----|-------------------------------------------|
|--2--|--x-x-x-x-x-x-x-x-x-x-x-x---------------2--|
|--2--|--x-x-x-x-x-x-x-x-x-x-x-x------------2--2--|
|--2--|--x-x-x-x-x-x-x-x-x-x-x-x--2-4p2-4p2----2--|
         ^ play this 1st and 3rd times

2nd and 4th times
|-------------------------------------------|
|-------------------------------------------|
|-------------------------------------------|
|--x-x-x-x-x-x-x-x-x-x-x-x---------------2--|
|--x-x-x-x-x-x-x-x-x-x-x-x------------2--2--|
|--x-x-x-x-x-x-x-x-x-x-x-x--2-4p2-5p2----2--|



Verse 2 leads (with wah):


   <---hold--->         <---hold--->
|------8--8--8--------------------------------------------|
|--8b--8b-8b-8b--8brp5-----8--8--8------------------------|
|----------------------7b--7b-7b-7b-7brp5-5h7p5-----------|
|-----------------------------------------------5/7~~~~~--|
|---------------------------------------------------------|
|---------------------------------------------------------|

|----------------------------------------------------------------|
|--12---12-12-12--12---12-12-12---------------------12-15b~~~~~--|
|--14b~~----------14b~~---------14brp12-------14-12--------------|
|---------------------------------------14-12--------------------|
|----------------------------------------------------------------|
|----------------------------------------------------------------|

|--12-------------| |--15--15--15--15---19--19--19--19----|
|--15b~~~~~~~~~~--| |----15--15--15--15---19--19--19--19--|
|-----------------| |-------------------------------------|
|-----------------| |-------------------------------------|
|-----------------| |-------------------------------------|
|-----------------| |-------------------------------------|




SOLO (w/ wah):

|--------------------------------|
|--<7>-<7>-----------------------|
|---------<7>-<7>----------------|
|----------------<7>-<7>---------| 
|-----------------------<7>-<7>--|
|--------------------------------|

|--------------------------------|
|--------------------------------|
|--<7>-<7>-----------------------|
|---------<7>-<7>----------------|
|----------------<7>-<7>---------| 
|-----------------------<7>-<7>--|

gradual bend, semi harmonic
|---------------------------------|
|---------------------------------|
|--5b~~~~~--5b-5b-5b-5b-5b-5b-5b--|
|---------------------------------|
|---------------------------------|
|---------------------------------|

|--------12-12-----12-12-12------12-12-12-----------|
|--------12-12-----12-12-12------12-12-12-----------|
|--/14b~~-----14b~~---------14b~~---------14b~~~~~--|
|---------------------------------------------------|
|---------------------------------------------------|
|---------------------------------------------------|

|--12-15p12--12-15p12--12-15p12--12-15p12--12-15p12--12-------------|
|----------15--------15--------15--------15--------15--15-15b~~~~~--|
|-------------------------------------------------------------------|
|-------------------------------------------------------------------|
|-------------------------------------------------------------------|
|-------------------------------------------------------------------|

|------15-14-12h14p12/10--14-12-10h12p10/8-----10-------------|
|--/12--------------------------------------10b---10br~~~~~~--|
|-------------------------------------------------------------|
|-------------------------------------------------------------|
|-------------------------------------------------------------|
|-------------------------------------------------------------|

|------15-----------------------------------------------|
|--/15b---15br~~~~~-------------------------------------|
|--------------------12-14------------------------------|
|--------------------------12/14~~~~~~~~~~~~~~~~~~~~~~--| 
|-------------------------------------------------------|
|-------------------------------------------------------|
                               ^sustain




After Solo:

(one guitar is playing the intro palm-muting solo riff
the other one's doing this)

|------------------------------|
|------------------------------|
|-----------------7*b~~~~~-----|
|--16p14~~~~~------------------|
|------------------------------|
|------------------------------|
                  ^artificial harm.

|--12--------14--------17--------19---------|
|--15b~~~~~--17b~~~~~--20b~~~~~--22b~~~~~~--|
|-------------------------------------------|
|-------------------------------------------|
|-------------------------------------------|
|-------------------------------------------|




Outro:

(both guitars)
|---------------|
|---------------|
|----------4-4--|
|--2-2-----4-4--| rest is same as other choruses
|--2-2-----2-2--|
|--2-2----------|


lead outro w/ wah (listen carefully)
|-----------------|------------------------------------------------------|
|--12-----12------|------------------------------------------------------|
|--14b~~~-14b~~~--|--14-14--12-12--11-11--9-9--14-14--12-12--11-11--9-9--|
|-----------------|------------------------------------------------------|
|-----------------|--12-12--10-10---9--9--7-7--12-12--10-10---9--9--7-7--|
|-----------------|------------------------------------------------------|
play this a couple of times


|---------------------------------------|
|--15brp12----12--------------15b~~~~~--|
|----------14---14brp12----12-----------|
|-----------------------14--------------|
|---------------------------------------|
|---------------------------------------|




Final riff:

lead
|-------------------------------------------------------|
|-------------------------------11----13-11-13--13b~~~--|
|-------------------------------11----13-11-13--13b~~~--|
|--x-x-x-x-x-x-x-x-x-x-x-x--/13----13-------------------|
|--x-x-x-x-x-x-x-x-x-x-x-x------------------------------|
|--x-x-x-x-x-x-x-x-x-x-x-x------------------------------|

|------------------------------------------------------|
|-------------------------------11----13-11------------|
|-------------------------------11----13-11-----11~~~--|
|--x-x-x-x-x-x-x-x-x-x-x-x--/13----13-------13--13~~~--|
|--x-x-x-x-x-x-x-x-x-x-x-x-----------------------------|
|--x-x-x-x-x-x-x-x-x-x-x-x-----------------------------|

|-------------------------------------------------------|
|-------------------------------11----13-11-13--13b~~~--|
|-------------------------------11----13-11-13--13b~~~--|
|--x-x-x-x-x-x-x-x-x-x-x-x--/13----13-------------------|
|--x-x-x-x-x-x-x-x-x-x-x-x------------------------------|
|--x-x-x-x-x-x-x-x-x-x-x-x------------------------------|

|-------------------------------------------------------|
|-------------------------------11----13-11-------------|
|-------------------------------11----13-11-----11~~~\--|
|--x-x-x-x-x-x-x-x-x-x-x-x--/13----13-------13--13~~~\--|
|--x-x-x-x-x-x-x-x-x-x-x-x------------------------------|
|--x-x-x-x-x-x-x-x-x-x-x-x------------------------------|


give me a HELL!!!!!

give me a YEAH!!!!!




There's your tab. Please rate it well it took me a while. 





Comments


Popular Revelation Theory tabs & chords
Deep Six Tabs
Hell Yeah Tabs
Light It Up Tabs
Light It Up Intro Tabs
Selfish And Cold Tabs
Slowburn Tabs
Slowburn 1 Tabs
World To Burn Tabs


Song lyrics



↑ Back to top | Tablatures and chords are parodies/interpretations of the original songs. You may use it for private study, scholarship, research or language learning purposes only
© 2014 AZChords.com Contact us | Privacy policy | DMCA | Add/correct tabs | Request tabs | Top 50 tabs