» » »

Deep Six Tabs (ver.1)

Artists:  A B C D E F G H I J K L M N O P Q R S T U V W X Y Z # 

Deep Six Tabs (ver.1)

Revelation Theory
Rating:
0/5 (0 votes)

Hard to play? Try these video lessons and learn fast.
                


Intro:

e|----------------------------------------------------|
B|----------------------------------------------------|
G|------------------------------------------------5-5-| x4
D|-0h2-2-2--0-0h2-2-2--0-0h2-0-0-0h2-2-2--2-2-2-2-5-5-|
A|-0h2-2-2--0-0h2-2-2--0-0h2-0-0-0h2-2-2--2-2-2-2-3-3-|
D|-0h2-2-2--0-0h2-2-2--0-0h2-0-0-0h2-2-2--2-2-2-2-----|
           PM         PM    PM PM


e|------------------------------------------------------------|
B|-5-5-5-5-5-5-5-5-5-5-5-5--3-3-3-3-3-3-3-3-3-3-3-3-----------|
G|------------------------------------------------------------| x2
D|------------------------------------------------------------|
A|------------------------------------------------------------|
D|------------------------------------------------------------|



e|--------------------------------------------------|
B|--------------------------------------------------|
G|---------------------------------------------5-5--| x2
D|-0-2--2-0-2--2-0-2--2-0-2--2-0-2--2-0-2--2-0-5-5--|
A|-0-2--2-0-2--2-0-2--2-0-2--2-0-2--2-0-2--2-0-3-3--|
D|-0-2--2-0-2--2-0-2--2-0-2--2-0-2--2-0-2--2-0------|

Verse:

e|------------------------------------------------------------|
B|------------------------------------------------------------|
G|------------------------------------------------------------| x2
D|-0-2-2---2p0--0-3-3--3p0------------------------------------|
A|-0-2-2---2p0--0-3-3--3p0------------------------------------|
D|-0-2-2---2p0--0-3-3--3p0------------------------------------|


D|-----------------------------------------------|
A|-----------------------------------------------| x2
D|-0-2-2-2-2-2-2-2-2-0-0-0-0-5-5-5-5-5-5-5-5-----|
            
Hard to play? Try these video lessons and learn fast. | Correct




comments powered by Disqus
↑ Back to top | Tablatures and chords are parodies/interpretations of the original songs. You may use it for private study, scholarship, research or language learning purposes only