» » »

Revel 68, Anthem Tabs (ver.1)

Artists:  A B C D E F G H I J K L M N O P Q R S T U V W X Y Z # 

Anthem Tabs (ver.1)

Revel 68 Tabs
 Rating:
4/5 (4 votes)
Anthem lessons Tabs too difficult? Try these video lessons and learn fast
1
                
 :----------------|----------------|----------------|--------------------|
B  :----------------|----------------|----------------|------------------|
G  :----------------|----------------|----------------|------------------|
D  :----------------|----------------|----------------|------------------|
A  :----------------|----------------|----------------|------------------|
E  :----------------|----------------|----------------|------------------|
    ^ GUITAR 1 ^

E  :----------------|----------------|----------------|----------------|
B  :----------------|----------------|----------------|----------------|
G  :----------------|----------------|----------------|----------------|
D  :----------------|----------------|----------------|----------------|
A  :9---------------|5---------------|7---------------|2---------------|
E  :7---------------|3---------------|5---------------|0---------------|


E  :----------------|----------------|----------------|----------------|
B  :----------------|----------------|----------------|----------------|
G  :----------------|----------------|----------------|----------------|
D  :----------------|------7--9-----7|--------------5-|-7-----5--------|
A  :----------------|---9------------|--9--------7----|----------7-----|
E  :----------------|7---------------|-----7--5-------|-------------5--|


E  :----------------|----------------|----------------|----------------|
B  :----------------|----------------|----------------|----------------|
G  :----------------|----------------|----------------|----------------|
D  :------3--5-----3|----------------|----------------|----------------|
A  :---5------------|--5-------------|-2--3-----2-----|9-------9--5----|
E  :3---------------|-----3--0--0--0-|----------------|7-------7--3----|


E  :----------------|----------------|----------------|----------------|
B  :----------------|----------------|----------------|----------------|
G  :----------------|----------------|----------------|----------------|
D  :----------------|----------------|----------------|----------------|
A  :--5--7------7--2|----------------|9-9-9-9-9-9-9-9-|9-9-9-9-9-9-9-9-|
E  :--3--5------5--0|----------------|7-7-7-7-7-7-7-7-|7-7-7-7-7-7-7-7-|


E  :----------------|----------------|----------------|----------------|
B  :----------------|----------------|----------------|----------------|
G  :----------------|----------------|----------------|----------------|
D  :----------------|----------------|----------------|----------------|
A  :7-7-7-7-7-7-7-7-|7-7-7-7-7-7-7-7-|5-5-5-5-5-5-5-5-|5-5-5-5-5-5-5-5-|
E  :5-5-5-5-5-5-5-5-|5-5-5-5-5-5-5-5-|3-3-3-3-3-3-3-3-|3-3-3-3-3-3-3-3-|


E  :----------------|----------------|----------------|----------------|
B  :----------------|----------------|----------------|----------------|
G  :----------------|----------------|----------------|----------------|
D  :----------------|----------------|----------------|----------------|
A  :2-2-2-2-2-2-2-2-|2-2-2-2-2-2-2-2-|--*-------------|----------------|
E  :0-0-0-0-0-0-0-0-|0-0-0-0-0-0-0-0-|--*-------------|----------------|
                                                    ^  UNKNOWN SOLO ^

E  :----------------|----------------|----------------|----------------|
B  :----------------|----------------|----------------|----------------|
G  :----------------|----------------|----------------|----------------|
D  :----------------|----------------|----------------|----------------|
A  :----------------|----------------|----------------|----------------|
E  :----------------|----------------|----------------|----------------|
                        ^ UNKNOWN SO LO ^

E  :----------------|----------------|----------------|----------------|
B  :----------------|----------------|----------------|----------------|
G  :----------------|----------------|----------------|----------------|
D  :------7--9-----7|--------------5-|-7-----5--------|------3--5-----3|
A  :---9------------|--9--------7----|----------7-----|---5------------|
E  :7---------------|-----7--5-------|-------------5--|3---------------|


E  :----------------|----------------|----------------|----------------|
B  :----------------|----------------|----------------|----------------|
G  :----------------|----------------|----------------|----------------|
D  :----------------|----------------|----------------|----------------|
A  :--5-------------|-2--3-----2-----|9-------9--5----|--5--7------7--2|
E  :-----3--0--0--0-|----------------|7-------7--3----|--3--5------5--0|


E  :----------------|----------------|----------------|----------------|
B  :----------------|----------------|----------------|----------------|
G  :----------------|----------------|----------------|----------------|
D  :----------------|----------------|----------------|----------------|
A  :----------------|9-9-9-9-9-9-9-9-|9-9-9-9-9-9-9-9-|7-7-7-7-7-7-7-7-|
E  :----------------|7-7-7-7-7-7-7-7-|7-7-7-7-7-7-7-7-|5-5-5-5-5-5-5-5-|


E  :----------------|----------------|----------------|----------------|
B  :----------------|----------------|----------------|----------------|
G  :----------------|----------------|----------------|----------------|
D  :----------------|----------------|----------------|----------------|
A  :7-7-7-7-7-7-7-7-|5-5-5-5-5-5-5-5-|5-5-5-5-5-5-5-5-|2-2-2-2-2-2-2-2-|
E  :5-5-5-5-5-5-5-5-|3-3-3-3-3-3-3-3-|3-3-3-3-3-3-3-3-|0-0-0-0-0-0-0-0-|


E  :----------------|----------------|----------------|----------------|
B  :----------------|----------------|----------------|----------------|
G  :----------------|----------------|----------------|----------------|
D  :----------------|----------------|----------------|----------------|
A  :2-2-2-2-2-2-2-2-|--*-------------|----------------|----------------|
E  :0-0-0-0-0-0-0-0-|--*-------------|----------------|----------------|


E  :----------------|----------------|----------------|----------------|
B  :----------------|----------------|----------------|----------------|
G  :----------------|----------------|----------------|----------------|
D  :----------------|----------------|----------------|------7--9-----7|
A  :----------------|----------------|----------------|---9------------|
E  :----------------|----------------|----------------|7---------------|


E  :----------------|----------------|----------------|----------------|
B  :----------------|----------------|----------------|----------------|
G  :----------------|----------------|----------------|----------------|
D  :--------------5-|-7-----5--------|------3--5-----3|----------------|
A  :--9--------7----|----------7-----|---5------------|--5-------------|
E  :-----7--5-------|-------------5--|3---------------|-----3--0--0--0-|


E  :----------------|----------------|----------------|----------------|
B  :----------------|----------------|----------------|----------------|
G  :----------------|----------------|----------------|----------------|
D  :----------------|----------------|----------------|----------------|
A  :-2--3-----2-----|*---------2-----|------------2---|---------*------|
E  :----------------|*---------2-----|------------2---|---------*------|


E  :----------------|----------------|----------------|----------------|
B  :----------------|----------------|----------------|----------------|
G  :----------------|----------------|----------------|----------------|
D  :----------------|----------------|----------------|----------------|
A  :----3--*--------|----------------|2---------------|-*----------3--*|
E  :----3--*--------|----------------|2---------------|-*----------3--*|


E  :----------------||*----------------|----------------|
B  :----------------||*----------------|----------------|
G  :----------------|| ----------------|----------------|
D  :----------------|| ----------------|----------------|
A  :----------------|| 9-9-9-9-9-9-9-9-|9-9-9-9-9-9-9-9-|
E  :----------------|| 7-7-7-7-7-7-7-7-|7-7-7-7-7-7-7-7-|


E  :----------------|----------------|----------------|----------------|
B  :----------------|----------------|----------------|----------------|
G  :----------------|----------------|----------------|----------------|
D  :----------------|----------------|----------------|----------------|
A  :7-7-7-7-7-7-7-7-|7-7-7-7-7-7-7-7-|5-5-5-5-5-5-5-5-|5-5-5-5-5-5-5-5-|
E  :5-5-5-5-5-5-5-5-|5-5-5-5-5-5-5-5-|3-3-3-3-3-3-3-3-|3-3-3-3-3-3-3-3-|


E  :----------------|----------------*1|----------------|
B  :----------------|----------------*||----------------|
G  :----------------|---------------- ||----------------|
D  :----------------|---------------- ||----------------|
A  :2-2-2-2-2-2-2-2-|2-2-2-2-2-2-2-2- ||--*-------------|
E  :0-0-0-0-0-0-0-0-|0-0-0-0-0-0-0-0- ||--*-------------|


E  :----------------|----------------|----------------|----------------|
B  :----------------|----------------|----------------|----------------|
G  :----------------|----------------|----------------|----------------|
D  :----------------|----------------|----------------|----------------|
A  :----------------|----------------|----------------|----------------|
E  :----------------|----------------|----------------|----------------|


E  :----------------|
B  :----------------|
G  :----------------|
D  :----------------|
A  :----------------|
E  :----------------|
            
Submit corrections

comments powered by Disqus
↑ Back to top | Revel 68 Tabs for Anthem. Lyrics for acoustic guitar and electric guitar. 1 Tablatures and chords are parodies/interpretations of the original songs. You may use it for private study, scholarship, research or language learning purposes only