» » »

Untied Tabs (ver.1)

Artists:  A B C D E F G H I J K L M N O P Q R S T U V W X Y Z # 

Untied Tabs (ver.1)

Reveille
Rating:
0/5 (0 votes)

Hard to play? Try these video lessons and learn fast.
                
TUNING: Db Ab Db Gb Bb Eb

NOTE: h = hammer on
      p = pull off
      / = slide up
      \ = slide down
      x = muted

This song is played with two guitars, so I've tried to keep them in correct
timing with each other. Grab a friend and have some fun!


==================================[INTRO]===================================

Guitar I
Eb|---------|
Bb|---------|
Gb|---------|
Db|----0----|
Ab|---------|
Db|---------|


==================================[CHORUS]==================================

Guitars I & II
Eb|---------------------------------------------------------------------|
Bb|---------------------------------------------------------------------|
Gb|---------------------------------------------------------------------|
Db|----0h3h5-0h3h5-x-x-x-0h3h5-0h3h5---0h3h5-0h3h5-x-x-0h6p5-0h3h5-3----| x4
Ab|----0h3h5-0h3h5-x-x-x-0h3h5-0h3h5---0h3h5-0h3h5-x-x-0h6p5-0h3h5-3----|
Db|----0h3h5-0h3h5-x-x-x-0h3h5-0h3h5---0h3h5-0h3h5-x-x-0h6p5-0h3h5-3----|


================================[VERSE ONE]=================================

Guitar I
Eb|----------------------16----16-----------------------16----16--------|
Bb|----15-15-15-15--------------------15-15-15-15-----------------------|
Gb|---------------------------------------------------------------------|
Db|---------------------------------------------------------------------| x4
Ab|---------------------------------------------------------------------|
Db|---------------------------------------------------------------------|

Guitar II
Eb|---------------------------------------------------------------------|
Bb|---------------------------------------------------------------------|
Gb|---------------------------------------------------------------------|
Db|---------------------------------------------------------------------| x4
Ab|------------------4h5----------------------------4h5-----------------|
Db|---------------4h5------5\----4\--------------4h5------5\----4\------|


==================================[CHORUS]==================================

Guitars I & II
Eb|---------------------------------------------------------------------|
Bb|---------------------------------------------------------------------|
Gb|---------------------------------------------------------------------|
Db|----0h3h5-0h3h5-x-x-x-0h3h5-0h3h5---0h3h5-0h3h5-x-x-0h6p5-0h3h5-3----| x4
Ab|----0h3h5-0h3h5-x-x-x-0h3h5-0h3h5---0h3h5-0h3h5-x-x-0h6p5-0h3h5-3----|
Db|----0h3h5-0h3h5-x-x-x-0h3h5-0h3h5---0h3h5-0h3h5-x-x-0h6p5-0h3h5-3----|


================================[VERSE TWO]=================================

Guitar I
Eb|----------------------16----16-----------------------16----16--------|
Bb|----15-15-15-15--------------------15-15-15-15-----------------------|
Gb|---------------------------------------------------------------------|
Db|---------------------------------------------------------------------| x4
Ab|---------------------------------------------------------------------|
Db|---------------------------------------------------------------------|

Guitar II
Eb|---------------------------------------------------------------------|
Bb|---------------------------------------------------------------------|
Gb|---------------------------------------------------------------------|
Db|---------------------------------------------------------------------| x4
Ab|------------------4h5----------------------------4h5-----------------|
Db|---------------4h5------5\----4\--------------4h5------5\----4\------|


==================================[CHORUS]==================================

Guitars I & II
Eb|---------------------------------------------------------------------|
Bb|---------------------------------------------------------------------|
Gb|---------------------------------------------------------------------|
Db|----0h3h5-0h3h5-x-x-x-0h3h5-0h3h5---0h3h5-0h3h5-x-x-0h6p5-0h3h5-3----| x4
Ab|----0h3h5-0h3h5-x-x-x-0h3h5-0h3h5---0h3h5-0h3h5-x-x-0h6p5-0h3h5-3----|
Db|----0h3h5-0h3h5-x-x-x-0h3h5-0h3h5---0h3h5-0h3h5-x-x-0h6p5-0h3h5-3----|


==================================[BRIDGE]==================================

Guitar I
Eb|---------------------------------------------------|
Bb|---------------------------------------------------|
Gb|---------------------------------------------------|
Db|---------------------------------------------------|
Ab|---------------------------------------------------|
Db|------------------------------------------12-------|

Guitar II
Eb|---------------------------------------------------|
Bb|---------------------------------------------------|
Gb|---------------------------------------------------|
Db|---------------------------------------------------|
Ab|---------------------------------------------------|
Db|----1p0-1p0-1p0-1p0-1p00--1p0-1p0-1p0-1p0-12-------|


GUITAR I
Eb|---------------------------------------------------|
Bb|---------------------------------------------------|
Gb|---------------------------------------------------|
Db|--------------------------------------1-2-3-4-5----|
Ab|--------------------------------------1-2-3-4-5----|
Db|----------(continue ringing)----------1-2-3-4-5----|

GUITAR II
Eb|---------------------------------------------------|
Bb|---------------------------------------------------|
Gb|---------------------------------------------------|
Db|--------------------------------------1-2-3-4-5----|
Ab|--------------------------------------1-2-3-4-5----|
Db|----1p0-1p0-1p0-1p0-1p00--1p0-1p0-1p0-1-2-3-4-5----|


================================[BREAKDOWN]=================================

Guitars I & II
Eb|---------------------------------------------------|
Bb|---------------------------------------------------|
Gb|---------------------------------------------------|
Db|----1p0-1p0-1p0-1p0-1p00--1p0-1p0-1p0-1p0-12-------|
Ab|----1p0-1p0-1p0-1p0-1p00--1p0-1p0-1p0-1p0-12-------|
Db|----1p0-1p0-1p0-1p0-1p00--1p0-1p0-1p0-1p0-12-------|
                                                                x3
Eb|---------------------------------------------------|
Bb|---------------------------------------------------|
Gb|---------------------------------------------------|
Db|----1p0-1p0-1p0-1p0-1p00--1p0-1p0-1p0-1-2-3-4-5----|
Ab|----1p0-1p0-1p0-1p0-1p00--1p0-1p0-1p0-1-2-3-4-5----|
Db|----1p0-1p0-1p0-1p0-1p00--1p0-1p0-1p0-1-2-3-4-5----|


Guitars I & II
Eb|-------------|
Bb|-------------|
Gb|-------------|
Db|----0--------|
Ab|----0--------|
Db|----0--------|


GUITARS I & II
Eb|----------------------------------------------------------------|
Bb|----------------------------------------------------------------|
Gb|----------------------------------------------------------------|
Db|----0h10h12-0h10h12-12-12-12-12--0h10h12-0h10h12-6-6-6-6p5-5----| x4
Ab|----0h10h12-0h10h12-12-12-12-12--0h10h12-0h10h12-6-6-6-6p5-5----|
Db|----0h10h12-0h10h12-12-12-12-12--0h10h12-0h10h12-6-6-6-6p5-5----|


==================================[OUTRO]===================================

GUITARS I & II
Eb|---------------------------------------|
Bb|---------------------------------------|
Gb|---------------------------------------|
Db|----0h3h5-0h3h5-0h3h5-0h3h5-x-x-x-x----| x3
Ab|----0h3h5-0h3h5-0h3h5-0h3h5-x-x-x-x----|
Db|----0h3h5-0h3h5-0h3h5-0h3h5-x-x-x-x----|

Eb|---------------------------------------|
Bb|---------------------------------------|
Gb|---------------------------------------|
Db|----0h3h5-0h3h5-0h3h5-0h3h5-6-6-6-6----| x1
Ab|----0h3h5-0h3h5-0h3h5-0h3h5-6-6-6-6----|
Db|----0h3h5-0h3h5-0h3h5-0h3h5-6-6-6-6----|

Eb|---------------------------------------|
Bb|---------------------------------------|
Gb|---------------------------------------|
Db|----0h3h5-0h3h5-0h3h5-0h3h5-x-x-x-x----| x3
Ab|----0h3h5-0h3h5-0h3h5-0h3h5-x-x-x-x----|
Db|----0h3h5-0h3h5-0h3h5-0h3h5-x-x-x-x----|

Eb|---------------------------------------|
Bb|---------------------------------------|
Gb|---------------------------------------|
Db|----0h3h5-0h3h5-0h3h5-0h3h5-6-6-6-6----| x1
Ab|----0h3h5-0h3h5-0h3h5-0h3h5-6-6-6-6----|
Db|----0h3h5-0h3h5-0h3h5-0h3h5-6-6-6-6----|


Guitar I
Eb|---------------------------------------|
Bb|---------------------------------------|
Gb|---------------------------------------|
Db|----0----------------------------------|
Ab|----0------(continue ringing)----------|
Db|----0----------------------------------|

Guitar II
Eb|---------------------------------------|
Bb|---------------------------------------|
Gb|---------------------------------------|
Db|----0-----------------------6-6-6-6----| x3
Ab|----0-----------------------6-6-6-6----|
Db|----0-----------------------6-6-6-6----|
                               . . . .      palm muted

Guitar I
Eb|-----------------------------------------|
Bb|-----------------------------------------|
Gb|-----------------------------------------|
Db|----------------------------6-6-6-6-0----|
Ab|-----(continue ringing)-----6-6-6-6-0----|
Db|----------------------------6-6-6-6-0----|
                               . . . .        palm muted

Guitar II
Eb|-----------------------------------------|
Bb|-----------------------------------------|
Gb|-----------------------------------------|
Db|----0-----------------------6-6-6-6-0----|
Ab|----0-----------------------6-6-6-6-0----|
Db|----0-----------------------6-6-6-6-0----|
                               . . . .        palm muted


============================================================================

There you have it. If you have any questions or anything regarding this tab

Thanks folks.
            
Hard to play? Try these video lessons and learn fast. | Correct




comments powered by Disqus
↑ Back to top | Tablatures and chords are parodies/interpretations of the original songs. You may use it for private study, scholarship, research or language learning purposes only