» » »

Unborn Tabs (ver.1)

Artists:  A B C D E F G H I J K L M N O P Q R S T U V W X Y Z # 

Unborn Tabs (ver.1)

Reveille
Rating:
5/5 (1 vote)

Hard to play? Try these video lessons and learn fast.
                TRACK #: ONE

   tune down 1/2 step and drop the low e to a d flat

   INTRO

   e|------10-------------------|
   B|----------10--9------------|
   G|-----------------10--9--7--|
   D|-0-------------------------|
   A|-0-------------------------|
   D|-0-------------------------|

   BRIDGE

   e|-----------------------------------------------------------|
   B|-----------------------------------------------------------|
   G|-----------------------------------------------------------|
   D|-00-0-0-000-0-0-000-0-0-00-3-00-0-0-000-0-0-000-0-0-00-353-|
   A|-00-0-0-000-0-0-000-0-0-00-3-00-0-0-000-0-0-000-0-0-00-353-|
   D|-00-0-0-000-0-0-000-0-0-00-3-00-0-0-000-0-0-000-0-0-00-353-|

   CHORUS

   e|-------------------|
   B|-------------------|
   G|-------------------|
   D|-7-----------------|
   A|-5--7--6--3--2--0--|
   D|----7--6--3--2--0--|       REPEAT 3 TIMES THEN GO

   e|----------|
   B|----------|
   G|----------|
   D|-7--10--7-|
   A|-7--10--5-|
   D|-7--10----|


   listen to song for rythem, timing and order
            
Hard to play? Try these video lessons and learn fast. | Correct




comments powered by Disqus
↑ Back to top | Tablatures and chords are parodies/interpretations of the original songs. You may use it for private study, scholarship, research or language learning purposes only