» » »

Rise And Blood Tabs (ver.1)

Artists:  A B C D E F G H I J K L M N O P Q R S T U V W X Y Z # 

Rise And Blood Tabs (ver.1)

Reveille
Rating:
0/5 (0 votes)

Hard to play? Try these video lessons and learn fast.
                Intro: (repeat...)
E-----------------------------------------------------------
B-------5---------------------------------------------------
G---0-5---4-4--0-0-0-2-2------------------------------------
D-----------------------------------------------------------
A-----------------------------------------------------------
D-----------------------------------------------------------
    ........PM........

E-----------------------------------------------------------
B-----------------------------------------------------------
G-----------------------------------------------------------
D-----------------------------------------------------------
A---3-2-00-3-2-3-2-00-3-2-3-2-00-3-2-4-33-7-6-7-------------
D---3-2-00-3-2-3-2-00-3-2-3-2-00-3-2-4-33-7-6-7-------------



E-----------------------------------------------------------
B-----------------------------------------------------------
G-----------------------------------------------------------
D--32------32------32-------320--767------------------------
A--32------32------32-------320--767------------------------
D--32------32------32-------320--767------------------------


E-----------------------------------------------------------
B-----------------------------------------------------------
G-----------------------------------------------------------
D-----------------------------------------------------------
A---22--77--99--14--14--------------------------------------rEPEAT
D---00--55--77--12--12--------------------------------------


E-----------------------------------------------------------
B-----------------------------------------------------------
G-----------------------------------------------------------
D--00--5/7--00-0--4/6--00-5/7-0--8-9-10-11------------------
A--00--5/7--00-0--4/6--00-5/7-0--8-9-10-11------------------
D--00--5/7--00-0--4/6--00-5/7-0--8-9-10-11------------------
            
Hard to play? Try these video lessons and learn fast. | Correct




comments powered by Disqus
↑ Back to top | Tablatures and chords are parodies/interpretations of the original songs. You may use it for private study, scholarship, research or language learning purposes only