» » »

Reveille, Pheonix Bass tabs (ver.1)

Artists:  A B C D E F G H I J K L M N O P Q R S T U V W X Y Z # 

Pheonix Bass tabs (ver.1)

Reveille Tabs
 Rating:
4/5 (4 votes)
Pheonix lessons Tabs too difficult? Try these video lessons and learn fast
                intro & verse
G------
D------
A------
E-000--x12

chorus
G-----------------------------------
D-----------------------------------
A------------------00-3-00-5/3-3333-
E-00-3-00-5/3-3333------------------x2

G----------------------------------
D----------------------------------
A-----------------00-3-00-5/3-xxxx-
E-00-3-00-5/3-xxxx-----------------x2

back to verse x8

chorus
G-----------------------------------
D-----------------------------------
A------------------00-3-00-5/3-3333-
E-00-3-00-5/3-3333------------------x2

G----------------------------------
D----------------------------------
A-----------------00-3-00-5/3-xxxx-
E-00-3-00-5/3-xxxx-----------------x2

G------------------666-
D----------------------
A----------------------
E-00-3-00-5/3-3333------x4

interlude 
G------------------
D------------------
A------------------
E-7-7-5-7-3-2-0-0--x8

chorus
G-----------------------------------------
D-----------------------------------------
A------------------00-3-00-5/3-3333-0~~~~~
E-00-3-00-5/3-3333------------------------x6

pause

chorus
G-----------------------------------------
D-----------------------------------------
A------------------00-3-00-5/3-3333-0~~~~~
E-00-3-00-5/3-3333------------------------x6
            
Submit corrections

comments powered by Disqus
↑ Back to top | Reveille Bass for Pheonix. Lyrics for acoustic guitar and electric guitar. Tablatures and chords are parodies/interpretations of the original songs. You may use it for private study, scholarship, research or language learning purposes only