>
 >
Pheonix

Pheonix Guitar Tabs

Reveille - Pheonix chords, tabs, tablatures, lyrics

Guitar lessons | Add/correct | Request | Top 50 tabs Artists:  A B C D E F G H I J K L M N O P Q R S T U V W X Y Z 0-9

Pheonix Guitar Tabs – Reveille

CD, Sheet music, Poster

Do you like Pheonix? Share with your friends now
Bass TabsTabs

Intro	 x4  Fill1 	 
|-----------|------| |------|
|-----------|-3/8--| |*5/10-|
|-----------|-1/6--| |*3/-8-|
|--0-0---0--|------| |------|
|--0-0---0--|------| |------|
|--0-0---0--|------| |------|
pm .......            *Guit 2. Plays This         

Rhy Fig. 1	  		    		    	x2  		 
|---------------------------------------------------------
|--------------8---7---6---5~--------------6---5---4---3~~
|------------6---5---4---3---------------4---3---2---1----
|--0-0---0---------------------0-0---0--------------------
|--0-0---0---------------------0-0---0--------------------
|--0-0---0---------------------0-0---0--------------------
pm........................     ..........................		       
  		    		      		 
--------------------------------------------------------| |------|
--------------8---7---6---5~--------------6---5---4--3/8| |*5/10-|
------------6---5---4---3---------------4---3---2----1/6| |*3/-8-|
--0-0---0---------------------0-0---0-------------------| |------|
--0-0---0---------------------0-0---0-------------------| |------|
--0-0---0---------------------0-0---0-------------------| |------|
pm.......  ..............     .......  ............       *Guit. 2 plays this

Rhy Fig. 2		   x4 
|-----------------------------|
|-----------------------------|
|-----------------------------|
|-0-00-3p0-0-5--5-5-5-5-5-5-5-|
|-0-00-3p0-0-5--5-5-5-5-5-5-5-|
|-0-00-3p0-0-5--5-5-5-5-5-5-5-|

Rhy Fig. 3		    x4
|-----------------------------|
|-----------------------------|
|-----------------------------|
|-0-00-3p0-0-5--5-5-5-5-5-5-5-|
|-0-00-3p0-0-5--5-5-5-5-5-5-5-|
|-0-00-3p0-0-5--5-5-5-5-5-5-5-|
pm              .............

Rhy Fig. 4		 x4 
|--------------------------|
|---------------8-8-8-3/8--|
|---------------6-6-6-1/6--|
|-0-00-3p0-0-5-------------|
|-0-00-3p0-0-5-------------|
|-0-00-3p0-0-5-------------|
*(steady gliss on the slide)

Fill2
|-----|
|-----|
|-----|
|--0--|
|--0--|
|--0--|


Riff A				        x7
|*------9---------9---------9-------|--9--|
|*----------------------------------|-----|
|*-6---------6---------6---------6--|---6-|
|*----------------------------------|-----|
|*----------------------------------|-----|
|*----------------------------------|-----|
*(with delay pedal)

Fill3
|-----------------|
|-----------------|
|-----------------|
|-----------------|
|-5-5-5-5-5-5--x\-|
|-5-5-5-5-5-5--x\-|
pm...........
(x=Pick Scrape

Riff B			    x4
|*----------------------------|
|*----------------------------|
|*----------------------------|
|*----------------------------|
|*----------------------------|
|*-0-00-3p0-0-5-5-5-5-5-5-5-5-|
* (w. phase device)

Outro           X8
|----------9------|-----|
|-----8------8----|--3--|
|--6----6------6--|--2--|
|-----------------|--0--|
|-----------------|--0--|
|-----------------|--0--|

Arrangement:
Intro	
Fill1	   
Rhy Fig. 1 x2
Rhy Fig. 2
Rhy Fig. 3
Rhy Fig. 1 x2
Rhy Fig. 2
Rhy Fig. 3
Rhy Fig. 4
Fill2
Riff A
Rhy Fig. 2 x3
Fill2
Fill3
Riff B     
Outro





Comments


Popular Reveille tabs & chords
Permanent (take A Look Around) Drum Tabs
Aftertaste Tabs
Comin Back Tabs
Derelict Tabs
Inside Out (Intro) Tabs
Inside Out 1 Tabs
Judas Tabs
Killing Me Tabs
Permanent 1 Tabs
Unborn Tabs


Song lyrics



↑ Back to top | Tablatures and chords are parodies/interpretations of the original songs. You may use it for private study, scholarship, research or language learning purposes only
© 2014 AZChords.com Contact us | Privacy policy | DMCA | Add/correct tabs | Request tabs | Top 50 tabs