» » »

Permanent Tabs (ver.2)

Artists:  A B C D E F G H I J K L M N O P Q R S T U V W X Y Z # 

Permanent Tabs (ver.2)

Reveille
Rating:
0/5 (0 votes)

Tabs too difficult? Try these video lessons and learn fast.
                Permanent by Reveille

Tuning drop D 1/2 step down

*= Palm mute

------------------
------------------
------------------  x4
------------------
-0-0-06-0-0-06-0-- 
-0-0-06-0-0-06-0--
 * * *  * * *  *

Louder!!!!

Chorus
------------------------
------------------------
------------------------  x7
------------------------
-0-0-06-0-0--0-0-4h6666-
-0-0-06-0-0--0-0-4h6666-

------------------------
------------------------
------------------------ x1
------------------------
-0-0-06-0-0--0-0-6\-----
-0-0-06-0-0--0-0-6\-----


Verse

------------------------
------------------------
------------------------
-----------------5h7----
------------------------
-0000777766665h7--------


Chorus

Verse

Chorus x2

What's up, What's up!!!!

-----------------------  
----------------------- Slight pause 
----------------------- after 5th "0"  
-----------------------  
-----------------------
-0-12-12-10-0-00-10-0-0-10-0-10-12-
 * *  *  *  * ** *  * * *  * *  *
Take a look around  
Take a look around
Take a look around
Take a look around

Line'em up!!!

Play previous line but use power cords

---------------------------
---------------------------
-------ten's--------twelve-
--------------------------- 
-0-0h8h10-10-10-101012-----
-0-0h8h10-10-10-101012-----


----------------------------------
----------------------------------
----------------------------------
----------------------------------
-7-6-0--7-6-0--7-6-00-10-10-10-10-
-7-6-0--7-6-0--7-6-00-10-10-10-10-

That's the jist of it.  Hope you like
            
Tabs too difficult? Try these video lessons and learn fast.




comments powered by Disqus
↑ Back to top | Tablatures and chords are parodies/interpretations of the original songs. You may use it for private study, scholarship, research or language learning purposes only