» » »

Killing Me Tabs (ver.1)

Artists:  A B C D E F G H I J K L M N O P Q R S T U V W X Y Z # 

Killing Me Tabs (ver.1)

Reveille
Rating:
0/5 (0 votes)

Tabs too difficult? Try these video lessons and learn fast.
                Reveille

Harmonic

D#--0--------|
A#--0--------|
F#--0--------|
C#--0--------|
G#--0--------|
C#--0--------|


Chorus
D#------------------------------|
A#------------------------------|
F#------------------------------|
C#--1p0-0--0-10h12p10--0-6p5-5--|
G#--1p0-0--0-10h12p10--0-6p5-5--|
C#--1p0-0--0-10h12p10--0-6p5-5--|

Verse
D#----------------------------------|
A#----------------------------------|
F#----------------------------------|
C#--------------0-0-0-6-6-6-3-3-6-6-|
G#----------------------------------|
C#--0-0-0-3-3-3---------------------|

(4th messure in second verse)
D#----------------------------------|
A#----------------------------------|
F#-----------------(5)--------------|
C#--0-0-0-3-3-3-0-----(5)-----------|
G#--------------0-------------------|
C#----------------------------------|


Bridg 1
D#----------------------------------|
A#----------------------------------|
F#----------------------------------|
C#--0-0-0-3-3-3-0-0-0-6-6-6-3-3-6-6-|
G#----------------------------------|
C#----------------------------------|


Bridge 2
D#-------------------------|
A#-------------------------|
F#-------------------------|
C#--0---0-3-3-0----6-6-3-6-|
G#--0---0-3-3-0----6-6-3-6-|
C#--0---0-3-3-0----6-6-3-6-|

D#-----------|
A#-----------|
F#-----------|
C#--3------1-|
G#--3------1-|
C#--3------1-|


Bridge 3
D#----------------------------|
A#----------------------------|
F#----------------------------|
C#--0-0-4-x-x-0-0-4-x-x-0-0-4-|
G#--0-0-4-x-x-0-0-4-x-x-0-0-4-|
C#--0-0-4-x-x-0-0-4-x-x-0-0-4-|

D#----------------------------|
A#----------------------------|
F#----------------------5/6-7-|
C#--0-0-4-x-x-0-0-4-x-x-------|
G#--0-0-4-x-x-0-0-4-x-x-3/4-5-|
C#--0-0-4-x-x-0-0-4-x-x-------|

D#----------------------------|
A#----------------------------|
F#----------------------------|
C#--0-0-4-x-x-0-0-4-x-x-0-0-4-|
G#--0-0-4-x-x-0-0-4-x-x-0-0-4-|
C#--0-0-4-x-x-0-0-4-x-x-0-0-4-|

D#----------------------------|
A#----------------------------|
F#----------------------------|
C#--0-0-4-x-x-0-0-6-6-6-6-5-5-|
G#--0-0-4-x-x-0-0-6-6-6-6-5-5-|
C#--0-0-4-x-x-0-0-6-6-6-6-5-5-|
pm                -----------


Sweet M.F. Riff
D#---------------------------------------|
A#---------------------------------------|
F#---------------------------------------|
C#---------------------------------------|
G#---------------------------------------|
C#--0h10h12-0-0-9-0-0-10-0-9-0-10--10-10-|

D#------------------------------------|
A#------------------------------------|
F#------------------------------------|
C#------------------------------------|
G#------------------------------------|
C#--0h10h12-0-0-9-0-0-10-0-9-0-7--7-7-|


Bridge 3
D#----------------------------------|
A#----------------------------------|
F#----------------------------------|
C#--2-0--1-0--3-6--2-0-2h3-0--2/3\2-|
G#--2-0--1-0--3-6--2-0-2h3-0--2/3\2-|
C#--2-0--1-0--3-6--2-0-2h3-0--2/3\2-|

D#--------------------------------|
A#--------------------------------|
F#--------------------------------|
C#--2-0--3-0--1-0--2-0-2h3--0-2-0-|
G#--2-0--3-0--1-0--2-0-2h3--0-2-0-|
C#--2-0--3-0--1-0--2-0-2h3--0-2-0-|


Outro
D#----------------|
A#----------------|
F#----------------|
C#--0-----------3-|
G#--0--------3--3-|
C#--0-----------3-|

D#----------------|
A#----------------|
F#----------------|
C#--0--0--0-----3-|
G#--0--0--0--3--3-|
C#--0--0--0-----3-|
            
Tabs too difficult? Try these video lessons and learn fast.




comments powered by Disqus
↑ Back to top | Tablatures and chords are parodies/interpretations of the original songs. You may use it for private study, scholarship, research or language learning purposes only