» » »

Judas Tabs (ver.1)

Artists:  A B C D E F G H I J K L M N O P Q R S T U V W X Y Z # 

Judas Tabs (ver.1)

Reveille
Rating:
0/5 (0 votes)

Hard to play? Try these video lessons and learn fast.
                Db Ab Db Gb Bb Eb

This is the complete song, with each part in the order in which it comes in the song. Rate or comment on this tab if you like it.

Clean
Eb|-----------------------------------------------------|
Bb|---------------------------------------------------8-|
Gb|-00-7-0-7-00--7-00-7-0-7-00-7-00-7-0-7-00-7-00-7-0---|
Db|-----------------------------------------------------| x1
Ab|-----------------------------------------------------|
Db|-----------------------------------------------------|
PM  .................................................

Clean
Eb|-----------------------------------------------------|
Bb|-----------------------------------------------------|
Gb|-00-7-0-7-00--7-00-7-0-7-00-7-00-7-0-7-00-7-00-7-0---|
Db|---------------------------------------------------7-| x2
Ab|-----------------------------------------------------|
Db|-----------------------------------------------------|
PM  ....................................................

Clean, distorted at end
Eb|---------------------------------------------------------|
Bb|---------------------------------------------------------|
Gb|-00-7-0-7-00--7-00-7-0-7-00-7-00-7-0-7-00-7-00-7-0-------|
Db|-----------------------------------------------------5-5-| x1
Ab|-----------------------------------------------------5-5-|
Db|-----------------------------------------------------5-5-|
PM  .................................................

Distortion
Eb|----------------------------------------------------------------|
Bb|----------------------------------------------------------------|
Gb|--------------------------------------------------------5\6-6\7-|
Db|-0--3p0-3p0--00--0-3p0-3p0--00--0-3p0-2p0-0-3p0-0-3p0---x\x-x\x-| x4
Ab|-0--3p0-3p0--00--0-3p0-3p0--00--0-3p0-2p0-0-3p0-0-3p0---3\4-4\5-|
Db|-0--3p0-3p0--00--0-3p0-3p0--00--0-3p0-2p0-0-3p0-0-3p0-----------|

Distortion
Eb|-------------------|---------------|--------------|----------------|
Bb|-------------------|---------------|--------------|----------------|
Gb|-------------------|---------------|--------------|----------------|
Db|-0-0--00-6/5-00-33-|-00-3/5-55-0-0-|-00-6/5-55-33-|-00-333-222-111-| x3
Ab|-0-0--00-6/5-00-33-|-00-3/5-55-0-0-|-00-6/5-55-33-|-00-333-222-111-|
Db|-0-0--00-6/5-00-33-|-00-3/5-55-0-0-|-00-6/5-55-33-|-00-333-222-111-|
PM                                                        ...........

Distortion
Eb|-------------------|---------------|-------------|-----|
Bb|-------------------|---------------|-------------|-----|
Gb|-------------------|---------------|-------------|-----|
Db|-0-0--00-6/5-00-33-|-00-3/5-55-0-0-|-00-6/5-55-3-|-5-5-| x1
Ab|-0-0--00-6/5-00-33-|-00-3/5-55-0-0-|-00-6/5-55-3-|-5-5-|
Db|-0-0--00-6/5-00-33-|-00-3/5-55-0-0-|-00-6/5-55-3-|-5-5-|

Distortion
Eb|----------------------------------------------------------------|
Bb|----------------------------------------------------------------|
Gb|--------------------------------------------------------5\6-6\7-|
Db|-0--3p0-3p0--00--0-3p0-3p0--00--0-3p0-2p0-0-3p0-0-3p0---x\x-x\x-| x4
Ab|-0--3p0-3p0--00--0-3p0-3p0--00--0-3p0-2p0-0-3p0-0-3p0---3\4-4\5-|
Db|-0--3p0-3p0--00--0-3p0-3p0--00--0-3p0-2p0-0-3p0-0-3p0-----------|

Distortion
Eb|-------------------|---------------|--------------|----------------|
Bb|-------------------|---------------|--------------|----------------|
Gb|-------------------|---------------|--------------|----------------|
Db|-0-0--00-6/5-00-33-|-00-3/5-55-0-0-|-00-6/5-55-33-|-00-333-222-111-| x3
Ab|-0-0--00-6/5-00-33-|-00-3/5-55-0-0-|-00-6/5-55-33-|-00-333-222-111-|
Db|-0-0--00-6/5-00-33-|-00-3/5-55-0-0-|-00-6/5-55-33-|-00-333-222-111-|
PM                                                        ...........

Distortion
Eb|-------------------|---------------|-------------|-----|
Bb|-------------------|---------------|-------------|-----|
Gb|-------------------|---------------|-------------|-----|
Db|-0-0--00-6/5-00-33-|-00-3/5-55-0-0-|-00-6/5-55-3-|-5-5-| x1
Ab|-0-0--00-6/5-00-33-|-00-3/5-55-0-0-|-00-6/5-55-3-|-5-5-|
Db|-0-0--00-6/5-00-33-|-00-3/5-55-0-0-|-00-6/5-55-3-|-5-5-|

Distortion
Eb|----------------------------------------------------------------|
Bb|----------------------------------------------------------------|
Gb|--------------------------------------------------------5\6-6\7-|
Db|-0--3p0-3p0--00--0-3p0-3p0--00--0-3p0-2p0-0-3p0-0-3p0---x\x-x\x-| x4
Ab|-0--3p0-3p0--00--0-3p0-3p0--00--0-3p0-2p0-0-3p0-0-3p0---3\4-4\5-|
Db|-0--3p0-3p0--00--0-3p0-3p0--00--0-3p0-2p0-0-3p0-0-3p0-----------|

Bass Solo x2

Distortion
Eb|------------------------------|
Bb|------------------------------|
Gb|------------------------------|
Db|-0-3p0-3p0-3p0-7p0-0-6p0-0-5~-| x8
Ab|-0-3p0-3p0-3p0-7p0-0-6p0-0-5~-|
Db|-0-3p0-3p0-3p0-7p0-0-6p0-0-5~-|

Distortion
Eb|-----------------|----------------|-----------------|----------------|    |----|
Bb|-----------------|----------------|-----------------|----------------|    |----|
Gb|-----------------|----------------|-----------------|----------------|    |----|
Db|-0-0--6p5-0-0-1~-|-0-0--6p5-0-1-3-|-0-0--6p5-0-0-1~-|-0-0--6p5-0-1-1-| x2 |-0~-|
Ab|-0-0--6p5-0-0-1~-|-0-0--6p5-0-1-3-|-0-0--6p5-0-0-1~-|-0-0--6p5-0-1-1-|    |-0~-|
Db|-0-0--6p5-0-0-1~-|-0-0--6p5-0-1-3-|-0-0--6p5-0-0-1~-|-0-0--6p5-0-1-1-|    |-0~-|

Light Distortion
Eb|---------------------|    |------------------------|
Bb|-------9-----------8-|    |----------9-----------8-|
Gb|----77----------66---|    |-------77----------66---|
Db|-88-------88-77------| x1 |-77-88-------88-77------| x19
Ab|---------------------|    |------------------------|
Db|---------------------|    |------------------------|
PM .......   .........         ........    .........

Light Distortion
Eb|------------------------------------------------------------|
Bb|------------------------------------------------------------|
Gb|-\10~--10\12-10-9-10-10\12-15-12-11^-10-10\12-10-9-10~--10~-|
Db|------------------------------------------------------------| x1
Ab|------------------------------------------------------------|
Db|------------------------------------------------------------|

Roll in with vol. knob on the 0
Eb|----|-----|
Bb|----|-----|
Gb|----|-----|
Db|-0~-|-5-5-| x1
Ab|-0~-|-5-5-|
Db|-0~-|-5-5-|

Distortion
Eb|------------------------------|------------------------------|-----------------|
Bb|------------------------------|------------------------------|-----------------|   
Gb|------------------------------|------------------------------|-----------------|   
Db|-0-00-12p10-00-0-0-12p10-0-3~-|-0-00-12p10-00-0-0-12p10-0-3~-|-5p3-0-5p3-0-5p3-| x3
Ab|-0-00-12p10-00-0-0-12p10-0-3~-|-0-00-12p10-00-0-0-12p10-0-3~-|-5p3-0-5p3-0-5p3-|
Db|-0-00-12p10-00-0-0-12p10-0-3~-|-0-00-12p10-00-0-0-12p10-0-3~-|-5p3-0-5p3-0-5p3-|    
PM    ..                             ..                 
          
Distortion
Eb|------------------------------|------------------------------|-----------------------------------|
Bb|------------------------------|------------------------------|-----------------------------------|   
Gb|------------------------------|------------------------------|-----------------------------------|   
Db|-0-00-12p10-00-0-0-12p10-0-3~-|-0-00-12p10-00-0-0-12p10-0-3~-|-5p3-0-5p3-0-5p3-5p3-0-5p3-0-5p3-0-| x1
Ab|-0-00-12p10-00-0-0-12p10-0-3~-|-0-00-12p10-00-0-0-12p10-0-3~-|-5p3-0-5p3-0-5p3-5p3-0-5p3-0-5p3-0-|
Db|-0-00-12p10-00-0-0-12p10-0-3~-|-0-00-12p10-00-0-0-12p10-0-3~-|-5p3-0-5p3-0-5p3-5p3-0-5p3-0-5p3-0-|    
PM    ..                             ..
            
Hard to play? Try these video lessons and learn fast. | Correct




comments powered by Disqus
↑ Back to top | Tablatures and chords are parodies/interpretations of the original songs. You may use it for private study, scholarship, research or language learning purposes only