» » »

Flesh And Blood Tabs (ver.1)

Artists:  A B C D E F G H I J K L M N O P Q R S T U V W X Y Z # 

Flesh And Blood Tabs (ver.1)

Reveille
Rating:
0/5 (0 votes)

Hard to play? Try these video lessons and learn fast.
                
Tuning: Drop D, Down Half A Step
(A#, F, A#, D#, G, C)

Intro
D#|------------------------|
A#|------------------------|
F#|------------------------|
C#|--5-4-3-0-2-----2-3-4-0-|
G#|--5-4-3-0-2-0-0-2-3-4-0-|
C#|--5-4-3-0-2-0-0-2-3-4-0-|

Breakdown
D#|---------------|
A#|---------------|
F#|---------------|
C#|---------------|
G#|--0-0-0-0----0-|
C#|--0-0-0-0----0-|
     PM----|

Verse
D#-|--------------------------------|
A#-|--------------------------------|
F#-|--------------------------------|
C#-|--------------------------------|
G#-|---0-0--------0-0---------------|
C#-|---0-0--5-5---0-0---5-5---5~----|x3
     PM--|  NH-   PM-   NH-   NH


D#-|--------------------------------|
A#-|--------------------------------|
F#-|-----------------------5--------|
C#-|--------------------------5-----|
G#-|---0-0--------0-0---------------|
C#-|---0-0--5-5---0-0---5-----------|x1
     PM--|  NH-   PM-   NH-   NH

Bridge
D#|-----------------------|
A#|-----------------------|
F#|-----------------------|
C#|-0--5-4-3--------------|
G#|-0--5-4-3--------------|
C#|-0--5-4-3---4-4---4-4--|x3
	       NH------|

D#|-----------------------|
A#|-----------------------|
F#|-----------------------|
C#|-0--5-4-3---3-5---3-0--|
G#|-0--5-4-3---3-5---3-0--|
C#|-0--5-4-3---3-5---3-0--|x1



Interlude
D#|--------------------------|
A#|--------------------------|
F#|--------------------------|
C#|-0-0-0-0-12---6-5-6-5-6-5-|
G#|-0-0-0-0-12---6-5-6-5-6-5-|
C#|-0-0-0-0-12---6-5-6-5-6-5-|
    PM----|


D#|--------------------------|
A#|--------------------------|
F#|--------------------------|
C#|-0-0-0-0-12---5-4-5-4-5-4-|
G#|-0-0-0-0-12---5-4-5-4-5-4-|
C#|-0-0-0-0-12---5-4-5-4-5-4-|
            
Hard to play? Try these video lessons and learn fast. | Correct




comments powered by Disqus
↑ Back to top | Tablatures and chords are parodies/interpretations of the original songs. You may use it for private study, scholarship, research or language learning purposes only