» » »

Reveille, Farewell Fix Tabs (ver.1)

Artists:  A B C D E F G H I J K L M N O P Q R S T U V W X Y Z # 

Farewell Fix Tabs (ver.1)

Reveille Tabs
Rating:
0/5 (0 votes)
Farewell Fix lessons Tabs too difficult? Try these video lessons and learn fast
                intro/verse
e(---------------------------------------------------------)
b(---------------------------------------------------------)
g(--3---3---3---3---3---3---3---3--------------------------)
d(--3---3---3---3---3---3---3---3------0000000000000000----)
a(--1-1-1-1-1-1-1-1-1-1-1-1-1-1-1-1-00-1111111111111111-00-)
D(---------------------------------------------------------)

intro/verse lead
e(----------------------------------------------------)
b(----------------------------------------------------)
g(-----1---1---1---1---1---1---1---1----8888666333431-)
d(----------------------------------------------------)
a(----------------------------------------------------)
D(----------------------------------------------------)

pre-chorus
e(---------------)(--------------------)
b(---------------)(--------------------)
g(--8-9-11-13-88-)(--------------------)
d(---------------)(--1-1-1-1-6-66-66-5-)
a(---------------)(--1-1-1-1-6-66-66-5-)
D(---------------)(--1-1-1-1-6-66-66-5-)
                   pm. . . . . .. .. .
chorus
e(---------------------)
b(---------------------)
g(---------------------)
d(--55555555-1111-66-5-)
a(--55555555-1111-66-5-)
D(--55555555-1111-66-5-)

breakdown
e(-----------)(-----14-15-16-14-13-)(------------------------)
b(-----------)(--10----------------)(------------------------)
g(-----------)(--------------------)(------------------------)
d(--7-6-99-7-)(--------------------)(--33333333-1111-6666765-)
a(--7-6-99-7-)(--------------------)(--33333333-1111-6666765-)
D(--7-6-99-7-)(--------------------)(--33333333-1111-6666765-)
            
Submit corrections

comments powered by Disqus
↑ Back to top | Reveille Tabs for Farewell Fix. Lyrics for acoustic guitar and electric guitar. Tablatures and chords are parodies/interpretations of the original songs. You may use it for private study, scholarship, research or language learning purposes only