» » »

Reveille, Derelict Tabs (ver.1)

Artists:  A B C D E F G H I J K L M N O P Q R S T U V W X Y Z # 

Derelict Tabs (ver.1)

Reveille Tabs
 Rating:
4/5 (4 votes)
Derelict lessons Tabs too difficult? Try these video lessons and learn fast
                ******************************25-10-03******
* Song....: Derelict
* Band....: Reveille
* Albun...: Bleed the sky
* Tunning.: Drop Db
*
*****

 ;part1
----------------------------------------------------|----
----------------------------------------------------|----
----------------------------------------------------|----
-0-0-0-6-6-6-0-0-0-6-6-6-0-0-0-6-6-6-0-0-0-6-6-6----|- 3x
-0-0-0-6-6-6-0-0-0-6-6-6-0-0-0-6-6-6-0-0-0-6-6-6----|---- 
-0-0-0-6-6-6-0-0-0-6-6-6-0-0-0-6-6-6-0-0-0-6-6-6----|----

 ;part2
----------------------------------------------------|-----
----------------------------------------------------|-----
----------------------------------------------------|-----
-0--3--0-5--3--0-5-5--------------------------------|- 4x
-0--3--0-5--3--0-5-5--------------------------------|-----
-0--3--0-5--3--0-5-5--------------------------------|-----

 ;part3
---------------------------------------------------------
---------------------------------------------------------
--------------------5---------------------------5~7~4----
-5-3-0------5-3-0---5---5-3-0---0-0-0-0--5-3-0-----------
-5-3-0------5-3-0---3---5-3-0---0-0-0-0--5-3-0-----------
-5-3-0------5-3-0-------5-3-0---0-0-0-0--5-3-0-----------
                               pm pm pm


---------------------------------------------------------
---------------------------------------------------------
---------------------5-------------------------------7-------
-5-3-0-------5-3-0---5---5-3-0---0-0-0-0--5-3-0---7-------
-5-3-0-------5-3-0---3---5-3-0---0-0-0-0--5-3-0---5-------
-5-3-0-------5-3-0-------5-3-0---0-0-0-0--5-3-0-----------
                                pm pm pm

 ;part 1    2x

 ;part 3    1x
 
 ;part 1    2x

 ;part 2    8x

 ;part 4
----------------------------------------------------|-----
----------------------------------------------------|-----
-8-7--5-7--8-7--5-7--8-7--5-7--8-7--5-7-------------|-----
-8-7--5-7--8-7--5-7--8-7--5-7--8-7--5-7-------------|- 2x
-6-5--3-5--6-5--3-5--6-5--3-5--6-5--3-5-------------|-----
----------------------------------------------------|-----

 ;part 5
------------------------------|-------------------------------
------------------------------|-------------------------------
------------------------------|-------------------------------
-0-0-0-3-4-5---0-0-0-3-4-5-8--|3x  0-0-0-3-4-5---0-0-0-3-4-5-1
-0-0-0-3-4-5---0-0-0-3-4-5-8--|--- 0-0-0-3-4-5---0-0-0-3-4-5-1
-0-0-0-3-4-5---0-0-0-3-4-5-8--|--- 0-0-0-3-4-5---0-0-0-3-4-5-1

--------------------------------------------------------------
--------------------------------------------------------------
--------------------------------------------------------------
-0-0-0-3-4-5---0-0-0-3-4-5---0-0-0-3-4-5---0-0-0-3-4-5-8------
-0-0-0-3-4-5---0-0-0-3-4-5---0-0-0-3-4-5---0-0-0-3-4-5-8------
-0-0-0-3-4-5---0-0-0-3-4-5---0-0-0-3-4-5---0-0-0-3-4-5-8------

 ;part 6
-----------------------------------------------------------|--
-----------------------------------------------------------|--
-----------------------------------------------------------|--
-0-0-0-3-4-5---0-0-0-3-4-5-8---0-0-0-3-4-5---0-0-0-3-4-5-1-|2x
-0-0-0-3-4-5---0-0-0-3-4-5-8---0-0-0-3-4-5---0-0-0-3-4-5-1-|--
-0-0-0-3-4-5---0-0-0-3-4-5-8---0-0-0-3-4-5---0-0-0-3-4-5-1-|--

 ;part 1 2x

 ;part 7
----------------------------------------------------------
----------------------------------------------------------
----------------------------------------------------------
-0-0-0-0-6--0-0-0-0-6--0-0-0-0-6--0-0-0-6-----------------
-0-0-0-0-6--0-0-0-0-6--0-0-0-0-6--0-0-0-6-----------------
-0-0-0-0-6--0-0-0-0-6--0-0-0-0-6--0-0-0-6-----------------
            
Submit corrections

comments powered by Disqus
↑ Back to top | Reveille Tabs for Derelict. Lyrics for acoustic guitar and electric guitar. Tablatures and chords are parodies/interpretations of the original songs. You may use it for private study, scholarship, research or language learning purposes only