» » »

Reveille, Dark Horizons Tabs (ver.1)

Artists:  A B C D E F G H I J K L M N O P Q R S T U V W X Y Z # 

Dark Horizons Tabs (ver.1)

Reveille Tabs
 Rating:
4/5 (4 votes)
Dark Horizons lessons Tabs too difficult? Try these video lessons and learn fast
1
                REVEILLE: LACED
DARK HORIZONS

Tuning: Drop D: (D,A,D,G,B,E)

Intro:
E||-------------------------------------------------------------------------------||
B||-------------------------------------------------------------------------------||
G||---------1-----------1---------------------------------------------------------||
D||------------------------------------------3-----------3------------------------||
A||-------------------------------------------------------------------------------||
D||-3-2-1-0----3-2-1-0----3-2-1-0----3-2-1-0----3-2-1-0----3-2-1-0----------------||

Pre-Chorus:
E||----------------------||
B||----------------9~~---||
G||----------------------||
D||--9~~--10~~-----------||
A||----------------------||
D||----------------------||

Chorus:
E||-------------------------------------------------------------------||
B||-------------------------------------------------------------------||
G||-------------------------------------------------------------------||
D||-------------------------------------------------------------------||
A||-8-----7-----6-----7-----12-12-12----8-----7-----6-----7-----3-3-3-||
D||-8-0-0-7-0-0-6-0-0-7-0-0-12-12-12--0-8-0-0-7-0-0-6-0-0-7-0-0-3-3-3-||

Bridge:
E||-------------------------------||
B||-------------------------------||
G||-------11----------------------||
D||-7--8----------0-1-0-----------||
A||-----------------------3-3/5---||
D||-------------------------------||
            
Submit corrections

comments powered by Disqus
↑ Back to top | Reveille Tabs for Dark Horizons. Lyrics for acoustic guitar and electric guitar. 1 Tablatures and chords are parodies/interpretations of the original songs. You may use it for private study, scholarship, research or language learning purposes only