» » »

Reveille, Bleed The Sky Tabs (ver.1)

Artists:  A B C D E F G H I J K L M N O P Q R S T U V W X Y Z # 

Bleed The Sky Tabs (ver.1)

Reveille Tabs
 Rating:
4/5 (4 votes)
Bleed The Sky lessons Tabs too difficult? Try these video lessons and learn fast
1
                Reveille
Blead the Sky

  Hamonic = ( )


Intro
D#--------------------------|-------------------------|
A#--------2---2h3p2---2-----|-------2---2h3p2-----3-2-|
F#----2h3-----------3---3-2-|---2h3-----------2-3-----|
C#--0-------0---------------|-0-------0---------------|
G#----------------------------------------------------|
C#----------------------------------------------------|

D#--------------------------|---------------------------|
A#--------2---2h3p2---2-----|-------2---2-3-2---2-------|
F#----2h3-----------3---3-2-|---2h3-----------3---2-3-2-|
C#--0-------0---------------|-0-------0-----------------|
G#--------------------------|---------------------------|
C#--------------------------|---------------------------|

D#--------------------------|-------------------------|
A#--------2---2h3p2---2-----|-------2---2h3p2-----3-2-|
F#----2h3-----------3---3-2-|---2h3-----------2-3-----|
C#--0-------0---------------|-0-------0---------------|
G#----------------------------------------------------|
C#----------------------------------------------------|

D#--------------------------|---------------------------|
A#--------2---2h3p2---2-----|---------------------------|
F#----2h3-----------3---3-2-|--6--7---2-----------------|
C#--0-------0---------------|--6--7---2-----------------|
G#--------------------------|--4--5---0-----------------|
C#--------------------------|---------------------------|

D#---------------------------|--------------------------|
A#---------------------------|--------------------------|
F#---------------------------|--------------------------|
C#---------------------------|--------------------------|
G#----0h1-4---4h5p4--1-4-1-0-|---0h1-4---4h5p4--0-1-5-4-|
C#--0-------0----------------|-0-------0----------------|

D#---------------------------|--------------------------|
A#---------------------------|--------------------------|
F#---------------------------|--------------------------|
C#---------------------------|-6--7---2-----------------|
G#----0h1-4---4h5p4--1-4-1-0-|-6--7---2-----------------|
C#--0-------0----------------|-4--5---0-----------------|

Verse
D#------------------------------|--------------------------|
A#------------------------------|--------------------------|
F#------------------------------|--------------------------|
C#---------------------------3X-|--------------------------| Greg
G#----0h1-4---4h5p4--1-4-1-0----|---0h1-4---4h5p4--0-1-5-4-|
C#--0-------0-------------------|-0-------0----------------|


  :to get the wierd effect use a delay and start with the volume off
  play the not and the raise then lower the volume i use a volume petal 
  but steve uses the volume nobe on his guitar:
D#---------------|--------------|
A#-(7)----11-----|-------11-----|
F#-(5)-----------|--------------|
C#------------(7)|-(7)-------(7)| Steve
G#---------------|-(7)----------|
C#---------------|--------------|


Bridge
D#---------------------------|
A#---------------------------|
F#--6--7---2-----------------|
C#--6--7---2-----------------|
G#--4--5---0-----------------|
C#---------------------------|


Chorus (the first chorus use notes frome these chords
	 sorry i didn't take the time to figure it out)
D#----------------------|
A#----------------------|
F#----------------------|
C#--0---8---4---4/5-5\3-|
G#--0---8---4---4/5-5\3-|
C#--0---8---4---4/5-5\3-|




D#---------------------------|--------------------------|
A#--14-15--------------------|-14-15-------------15-----|
F#--------14----15-14-12-----|-------14----15-14--------|
C#------------------------12-|-----------------------12-|
G#---------------------------|--------------------------|
C#---------------------------|--------------------------|


   clean with flanger
D#----------------------------------|
A#----------------------------------|
F#----------------------------------|
C#----------------------------------|
G#----------------------------------| 4x
C#--2h3-0---2h3-0---2h3-0-3h4-0-4h5-|
pm----------------------------------


distorted
D#----------------------------------|
A#----------------------------------|
F#----------------------------------|
C#----------------------------------|
G#----------------------------------| 7x
C#--2h3-0---2h3-0---2h3-0-3h4-0-4h5-|
pm----------------------------------


D#----------------------------------|
A#----------------------------------|
F#----------------------------------|
C#------------------2---------------|
G#------------------2---------------|
C#--2h3-0---2h3-0---2--------(5)----|
pm---------------

D#----------------------------------|
A#----------------------------------|
F#----------------------------------|
C#--2h3-0---2h3-0---2h3-0-3h4-0-4h5-|
G#--2h3-0---2h3-0---2h3-0-3h4-0-4h5-| 7x
C#--2h3-0---2h3-0---2h3-0-3h4-0-4h5-|


D#----------------------------------|
A#----------------------------------|
F#----------------------------------|
C#--2h3-0---2h3-0---2h3-0-0-3-------| 1x
G#--2h3-0---2h3-0---2h3-0-0-3-------|
C#--2h3-0---2h3-0---2h3-0-0-3-------|

D#----------------------------------|
A#----------------------------------|
F#----------------------------------|
C#--2h3-0---2h3-0---2h3-0-3h4-0-4h5-|
G#--2h3-0---2h3-0---2h3-0-3h4-0-4h5-| 7x
C#--2h3-0---2h3-0---2h3-0-3h4-0-4h5-|

D#----------------------------------|
A#----------------------------------|
F#----------------------------------|
C#----------2h3-0---2h3-0-3h4-0-4h5-|
G#----------2h3-0---2h3-0-3h4-0-4h5-| 1x
C#----------2h3-0---2h3-0-3h4-0-4h5-|

D#----------------------------------|
A#----------------------------------|
F#----------------------------------|
C#--2h3-0---2h3-0---2h3-0-3h4-0-4h5-|
G#--2h3-0---2h3-0---2h3-0-3h4-0-4h5-| 1x
C#--2h3-0---2h3-0---2h3-0-3h4-0-4h5-|

A#----------------------------------|
F#----------------------------------|
C#----------2h3-0---2h3-0-0-3-------| 1x
G#----------2h3-0---2h3-0-0-3-------|
C#----------2h3-0---2h3-0-0-3-------|


D#----------------------------------|
A#----------------------------------|
F#----------------------------------|
C#----------------------------------|
G#----------------------------------| 3x
C#--2h3-0---2h3-0---2h3-0-3h4-0-4h5-|
pm----------------------------------

D#----------------------------------|
A#----------------------------------|
F#----------------------------------|
C#----------------------------------|
G#----------------------------------| 1x
C#----------2h3-0---2h3-0-0-3-------|
pm----------------------------------

D#----------------------------------|
A#----------------------------------|
F#----------------------------------|
C#----------------------------------|
G#----------------------------------| 3x
C#--2h3-0---2h3-0---2h3-0-3h4-0-4h5-|
pm----------------------------------

D#----------------------------------|
A#----------------------------------|
F#----------------------------------|
C#----------------------0-0-3-------|
G#----------------------0-0-3-------| 1x
C#----------2h3-0---2h3-0-0-3-------|
pm----------------------------------


D#-------------------------|-------|
A#-------4-------4---------|-------|
F#-------6-------6b---6----|-------|
C#--0-0------0-0-----------|-0-0-3-|
G#--0-0------0-0--------3x-|-0-0-3-|
C#--0-0------0-0-----------|-0-0-3-|

D#------------------------------------------------|
A#---------------------------------------------4--|
F#---------------------------------------------6B-|
C#--0-0-0------0-0-0-0------0-0-0------0-0-0-0----|
G#--0-0-0------0-0-0-0------0-0-0------0-0-0-0----| 2x
C#--0-0-0------0-0-0-0------0-0-0------0-0-0-0----|

D#------------------------------------------------|
A#---------------------------------------------4--|
F#---------------------------------------------6B-|
C#--0-0-0-xxxx-0-0-0-0-xxxx-0-0-0-xxxx-0-0-0-0----| 2x
G#--0-0-0-xxxx-0-0-0-0-xxxx-0-0-0-xxxx-0-0-0-0----|
C#--0-0-0-xxxx-0-0-0-0-xxxx-0-0-0-xxxx-0-0-0-0----|
            
Submit corrections

comments powered by Disqus
↑ Back to top | Reveille Tabs for Bleed The Sky. Lyrics for acoustic guitar and electric guitar. 1 Tablatures and chords are parodies/interpretations of the original songs. You may use it for private study, scholarship, research or language learning purposes only