» » »

Reveille, Aftertaste Tabs (ver.1)

Artists:  A B C D E F G H I J K L M N O P Q R S T U V W X Y Z # 

Aftertaste Tabs (ver.1)

Reveille Tabs
 Rating:
4/5 (4 votes)
Aftertaste lessons Tabs too difficult? Try these video lessons and learn fast
                

E--------------------------------------------------------
B--------------------------------------------------------
G-------------7-7-7---5-5-5------------------------------
D--0-0-0-0-----------------------6-6---------------------
A--------------------------------------------------------
D--------------------------------------------------------
     
                                         BRIDGE
E-----------------------------------
B-----------------------------------
G-----------------------------------
D---------44----------44------------}then right after
A------55----55----55----55---------this 
D---00----------00------------------

E----------------x----------------------
B----------------x---------------------- you play this DISTORTED
G----------------x----------------------
D----------------x----------------------
A----------------x----------------------
D---00000000-x----------------------




                                             Chorus
E--------------------------------------------------
B--------------------------------------------------
G---6--0-x-0--0---6--0-x-0--0---6--0-x-0--0----5555x5555
D---6--0-x-0--0---6--0-x-0--0---6--0-x-0--0----5555x5555 }Repeat a couple times 
A---6--0-x-0--0---6--0-x-0--0---6--0-x-0--0----3333x3333
D---6--0-x-0--0---6--0-x-0--0---6--0-x-0--0-----

                                     Bridge 
E-----------------------------------------------
B-----------------------------------------------
G--3-3-3-3------5-5-5-5-------3-3-3-3--------77-
D--3-3-3-3------5-5-5-5-------3-3-3-3--------77-
A--3-3-3-3------5-5-5-5-------3-3-3-3--------55-
D--3-3-3-3------5-5-5-5-------3-3-3-3-----------


 Thats all I got figured out right now
            
Submit corrections

comments powered by Disqus
↑ Back to top | Reveille Tabs for Aftertaste. Lyrics for acoustic guitar and electric guitar. Tablatures and chords are parodies/interpretations of the original songs. You may use it for private study, scholarship, research or language learning purposes only